Cifra Club

Aprenda

Atlas Hands

Benjamin Francis Leftwich

Cifra: Principal (violão e guitarra)
Já pensou em usar uma coleção de roupas do Cifra Club? Responda as perguntas abaixo e nos ajude nessa missão! →
tom: F# (forma dos acordes no tom de D) Capotraste na 4ª casa
Intro 2x: Bm  D  G

Bm              D               G
Take me to the docks, there's a ship without a name that
Bm              D               G
It is sailing to the middle of the sea
Bm              D               G
The water there is deeper than anything you've ever seen
Bm              D               G
Jump right in and swim until you freeze

Em      G       D       A
I will remember your face
Em      G       D       A
'Cause I am still in love with that place
Em      G       D       A
But when the stars are the only things we share
Em      G       D       A
Will you be there?

( Bm  D  G )  2x

Solo 1:

E|---------------5-----------------------5----5----------|
A|----7-3---0-3----3---0-3-0--7-3---0-3---3-----3--------|
D|--------2----------2------------2---------2-----2------|
G|-------------------------------------------------------|
B|-------------------------------------------------------|
E|-------------------------------------------------------|

Bm              D               G
Money came like rain to your hands while you were waiting
Bm              D               G
For that cold long promise to appear
Bm              D               G
People in the churches started singing above their hands
Bm              D               G
They say "My God is a good God and he cares"

Em      G       D       A
I will remember your face
Em      G       D       A
'Cause I am still in love with that place
Em      G       D       A
When the stars are the only things we share
Em      G       D       A
Will you be there?

Em      G
I've got a plan
D            A
I've got an atlas in my hands
Em      G       D       A
I'm gonna turn when I listen to the lessons that I've learned

Em      G
I've got a plan
D             A
I've got an atlas in my hands
Em      G       D       A
I'm gonna turn when I listen to the lessons that I've learned

( Bm  D  G ) 2x

Solo 2:

E|---------------5-----------------------5----5-----5----|
A|----7-3---0-3----3---0-3-0--7-3---0-3---3-----3--------|
D|--------2----------2------------2---------2-----2------|
G|-------------------------------------------------------|
B|-------------------------------------------------------|
E|-------------------------------------------------------|

( D )
Composição de Benjamin Francis Leftwich
Colaboração e revisão:
  • Guilherme Freda
  • Isabel Kwon
  • Lizandra
5.693 exibições
    • ½ Tom
    • A
    • Bb
    • B
    • C
    • Db
    • D
    • Eb
    • E
    • F
    • F#
    • G
    • Ab
  • Adicionar à lista

    0 comentários

    Ver todos os comentários

    Conseguiu tocar?

    11 Tocaram 0 Ainda não

    Grave um vídeo tocando Atlas Hands e nos envie!

    00:00 / 00:00
    Outros vídeos desta música
    Repetir Qualidade Automático
    Outros vídeos desta música
    00:00 / 00:00
    Automático

    Cifra Club Pro

    Aproveite o Cifra Club com benefícios exclusivos e sem anúncios
    Cifra Club Pro
    Aproveite o Cifra Club com benefícios exclusivos e sem anúncios
    OK