Cifra Club

Long Lost

Better Than Ezra

Cifra (violão e guitarra)
Selo Cifra Club: esta cifra foi revisada para atender aos critérios oficiais da nossa Equipe de Qualidade.
tom: C#m
(Main riff; strumming the 1st and 2nd strings open adds to the overall sound)
  C#5    G#m   A5        D5 E5
E|---------------------------------|
B|---------------------------------|
G|-6---------------------7--9------|
D|-6-----6-----7---------7--9------|
A|-4-----6-----7---------5--7------|
E|-------4-----5-------------------|

E|------0----------------0-------------------0-------|
B|------0------------------0-----------------0-------|
G|------6--------------------6------------6----------|
D|---6--6-------------------------------6------------|
A|-4----4--------------------------------------------|
E|---------------------------------------------------|
   Are you lost? Do you find life turning out not quite _


E|------0----------------0----------------------0----0-|
B|--------0-----------6--0----------------------0----0-|
G|----------6-------6---------------------------6----6-|
D|----------------------------------------------6----6-|
A|-----------------------------------------------------|
E|-----------------------------------------------------|
    The way you _ planned?    Come around, stay a - while


C#5      G#5   A5         D5
That's O - K _ that's all right
C#5      G#5   A5         D5        E5       C#5 G#5
Couldn't get to _ sleep, so talk about it
A5      D5        C#5       G#5
Let's talk about it right now

(Pre-chorus)
B                   A(9)
Here it comes on my head again
Well I guess I'm born to be the long lost...

(Chorus)
E          B             Asus2       B
Friend            Aw     whoo
Friend             long lost friend

(Bridge)
A  B  C#5          B5
       I've given ballast,
         A5                        C#5
Held you up when you were falling down
            B5                  A5
But what happens when I'm not around?

(Outro solo with wah-wah)
E|-16--19/21---17--16-----------------------------|
B|------------------------------------------------|
G|-------------------------11-----6h7-6\4--4------|
D|------------------------------------------------|
A|------------------------------------------------|
E|------------------------------------------------|
Outros vídeos desta música
    0 exibições
      • ½ Tom
      • Am
      • Bbm
      • Bm
      • Cm
      • C#m
      • Dm
      • Ebm
      • Em
      • Fm
      • F#m
      • Gm
      • G#m
    • Adicionar à lista

    Afinação da cifra

    Afinador online

      0 comentários

      Ver todos os comentários

      Conseguiu tocar?

      0Tocaram0Ainda não

      Grave um vídeo tocando Long Lost e nos envie!

      Toque também

      1. Imagem do artista Collective SoulShine Collective Soul
      2. Imagem do artista Gin BlossomsFollow you down Gin Blossoms
      3. Imagem do artista TonicIf You Could Only See Tonic
      4. Imagem do artista DishwallaAngels or Devils Dishwalla

      Entre para o Cifra Club PRO

      Tenha acesso a benefícios exclusivos no App e no Site

      • Chega de anúncios

      • Badges exclusivas

      • Mais recursos no app do Afinador

      • Atendimento Prioritário

      • Aumente seu limite de lista

      • Ajude a produzir mais conteúdo

      Cifra Club Pro

      Aproveite o Cifra Club com benefícios exclusivos e sem anúncios
      Cifra Club Pro
      Aproveite o Cifra Club com benefícios exclusivos e sem anúncios
      Ops (: Contenido disponible sólo en portugués.
      OK