Cifra Club

Tesouro

Betty Souza

Cifra: Principal
exibições 34.202
Tom: C# (com acordes na forma de C) Capotraste na 1ª casa
Intro:
 C C5+ C6 C7
E|-----0-2-----0-2------0-2-----0-2------0-2-----0-2------0-2-----0-2
B|---3-------3--------3-------3--------3-------3--------3-------3----
G|-2-------2--------3-------3--------4-------4--------5-------5------
D|-------------------------------------------------------------------
A|-------------------------------------------------------------------
E|-------------------------------------------------------------------
 C6 C5+ C C5+
E|-----0-2-----0-2------0-2-----0-2------0-2-----0-2------0-2-----0-2
B|---3-------3--------3-------3--------3-------3--------3-------3----
G|-4-------4--------3-------3--------2-------2--------3-------3------
D|-------------------------------------------------------------------
A|-------------------------------------------------------------------
E|-------------------------------------------------------------------

C       C5+     C6        C7
Onde quer que seja que escondas teu tesouro
C6       C5+       C   C5+
Ali também está teu coração
  C        C5+        C6         C7
Se aqui na terra o esconderes, ladrões podem roubá-los
  C6      C5+      C  C7
Ou pode escondê-lo lá no céu

     F C/E   Dm    G7    C  G/B Am Am/G
Há um tesouro no final da jornada dessa vida
  F  C/E Dm    G7   C Gm7 C7
Ele é a razão do meu viver
 F   C/E   Dm  G7     C   G/B    Am
Cristo é o Tesouro, é a razão pela qual eu vivo
   C     G        F C/E Dm C (Introd.)
E será o meu tesouro até morrer

  C       C5+    C6          C7
Se pensas hoje aonde vais ou qual será o caminho
C6        C5+       C C5+
Existe um mapa para todos nós
  C       C5+        C6         C7
Se nós o lermos e o seguir-mos aonde ele indica
    C6      C5+         C  C7
Não nos perderemos, só temos que escolher
Acordes para:
    Composição: Betty SouzaColaboração e revisão:
    • yury sobrinho
    • Vanderson Botelho

    0 comentários

      mostrar mais comentários

      Conseguiu tocar?

      0tocaram1ainda não

      Grave um vídeo tocando Tesouro e mande pra gente!

      00:00 / 00:00
      outros vídeos desta música
      repetirqualidadeautomática
      Outro vídeos desta música
        00:00 / 00:00
        automática
        OK