Cifra Club

Nosso Xote

Bicho de Pé

Cifra: Principal
exibições 136.719
Tom: F
[Intro] F  A  Dm  Dm  C#m  Cm    Bb  C  F  C  Bb  Am  Gm  F
        F  A  Dm  Dm  C#m  Cm    Bb  C  F  C  Bb  Am  Gm  F

E|-----------------------------------------------------|
B|-13-11--11-13--14-11--11-14-11-----------------------|
G|------14------------14--------14-12-12-10-10-9-8-7---|
D|-----------------------------------------------------|
A|-----------------------------------------------------|
E|-----------------------------------------------------|

E|---------10------------------10------------------------|
B|-------11--13-11--------10-11--13-11--------/13-11-----|
G|-10--10---------10-11-12------------12-13-14------14-12|
D|---12--------------------------------------------------|
A|-------------------------------------------------------|
E|-------------------------------------------------------|

E|-----------------------------------------------------|
B|-/13-11--11-13--14-11--11-14-11----------------------|
G|------14------------14--------14-12-12-10-10-9-8-8/10|
D|-----------------------------------------------------|
A|-----------------------------------------------------|
E|-----------------------------------------------------|

E|---------10------------------10-----------------------------|
B|-------11--13-11--------10-11--13-11--------10h13p10--------|
G|-10--10---------10-11-12------------12-13-14--------11h13p11|
D|---12-------------------------------------------------------|
A|------------------------------------------------------------|
E|------------------------------------------------------------|

  F          A7                    Dm
Moreno me convidou para dançar um xote
               F7                 Bb
Beijou o meu cabelo cheirou meu cangote
                 C             F
Fez meu corpo inteiro se arrepiar
             A7                              Dm
Fiquei sem jeito e ele me acolheu junto ao peito
   F7                    Bb
E foi nos braços desse moreno
              C                 F   C Bb Am Gm
Que eu forroziei até o dia clariar
F              A7                       Dm
Oi oi oi oi oi oi me encantei por teu olhar
  F7                  Bb
Moreno chega mais pra cá
    C                  F  C7
Meu dengo vem me chamegá
F               A7                   Dm
Oi oi oi oi oi oi teu jeito de balanciar
           F7                     Bb
O corpo inteiro Faz meu coração bater
           C                   F       C Bb Am Gm F
ligeiro assim eu vou me apaixonar
Acordes para:

    0 comentários

      mostrar mais comentários

      Conseguiu tocar?

      8tocaram1ainda não

      Grave um vídeo tocando Nosso Xote e mande pra gente!

      00:00 / 00:00
      outros vídeos desta música
      repetirqualidadeautomática
      Outro vídeos desta música
        00:00 / 00:00
        automática
        OK