Cifra Club

Simple Man

Big Country

Cifra: Principal (violão e guitarra)
Selo Cifra Club: esta cifra foi revisada para atender aos critérios oficiais da nossa Equipe de Qualidade.
tom: C
[Solo at 1:57]
E|-------------------------------------------------------------------------------------------|
B|-------------------------------------------------------------------------------------------|
G|-------------------------------------------------------------------------------------------|
D|-------------------------------------------------------------------------------------------|
A|-------------------5-----------------------5-----------------------------------------------|
E|-0--3--5h7p5-3-5-7---7-5h7p5-3-5h7p5-3-5-7---7-5h7p5-3--5h7p5-3-0--0-3-5-7-5-3--5h7p5-3-0--|

E|-------------------------------------------------------------------------------|
B|-------------------------------------------------------------------------------|
G|-------------------------------------------------------------------------------|
D|---------------------------------------------------/2-2-0h2p0---/5-2-0h2p0-----|
A|---------------5-----------------------5----------------------2-------------2--|
E|-0--3--5-3-5-7---7-5h7p5-3-5h7p5-3-5-7---7-5h7p5-3-----------------------------|

E|-----------------------------------------------------------------------|
B|-----------------------------------------------------------------------|
G|-----------------------------------------------------------------------|
D|-0h2-2--0h2p0---0h2-2-2-----------5-----------------------5------------|
A|--------------2----------/5-3-5-7---7-5h7p5-3-5h7p5-3-5-7---7-5h7p5-3--|
E|-----------------------------------------------------------------------|

E|------------------------------------------------------------------------------------|
B|------------------------------------------------------------------------------------|
G|------------------------------------------------------------------------------------|
D|------------------------------------------------------------------------------------|
A|-5-2-----------------5-2-----------------------5-----------------------5------------|
E|-----3b--0-3-5-7-5-3-----3b--0--3--5h7p5-3-5-7---7-5h7p5-3-5h7p5-3-5-7---7-5h7p5-3--|

E|----------------------------|
B|----------------------------|
G|----------------------------|
D|-------------5-----5--------|
A|-7-5---7-5-----7-5---7-5-7--|
E|-----7-----7----------------|


************************************

| h   Hammer-on
| p   Pull-off
| b   Bend
Outros vídeos desta música
    5 exibições
      • ½ Tom
      • A
      • Bb
      • B
      • C
      • Db
      • D
      • Eb
      • E
      • F
      • F#
      • G
      • Ab
    • Adicionar à lista

    Afinação da cifra

    Afinador online

      0 comentários

      Ver todos os comentários

      Entre para o Cifra Club PRO

      Tenha acesso a benefícios exclusivos no App e no Site

      • Chega de anúncios

      • Badges exclusivas

      • Mais recursos no app do Afinador

      • Atendimento Prioritário

      • Aumente seu limite de lista

      • Ajude a produzir mais conteúdo

      Cifra Club Pro

      Aproveite o Cifra Club com benefícios exclusivos e sem anúncios
      Cifra Club Pro
      Aproveite o Cifra Club com benefícios exclusivos e sem anúncios
      Ops (: Contenido disponible sólo en portugués.
      OK