Cifra Club

Aprenda

Ain't No Sunshine

Bill Withers

Cifra: Principal (violão e guitarra)
Tom: Am
[Intro] 

   Am7
E|----------------------------------------------------|
B|----------------------------------------------------|
G|----5-----------------------------------------------|
D|----5-----------------------------------------------|
A|--0-------------------------------------------------|
E|----------------------------------------------------|

[Primeira Parte]

   Am7      Em7  G    Am7
E|----------------------------------------------------|
B|---5---5----0----0----5-----------------------------|
G|---5---5----0----0----5-----------------------------|
D|---5---5----0----0----5-----------------------------|
A|----------------------------------------------------|
E|-5---5----0----3----5-------------------------------|

   Am7      Em7  G    Am7
E|----------------------------------------------------|
B|---5---5----0----0----5-----------------------------|
G|---5---5----0----0----5-----------------------------|
D|---5---5----0----0----5-----------------------------|
A|----------------------------------------------------|
E|-5---5----0----3----5-------------------------------|

   Em7              Dm7
E|----------------------------------------------------|
B|---8---8---8---8----6---6---6---6-------------------|
G|---7---7---7---7----5---5---5---5-------------------|
D|---9---9---9---9----7---7---7---7-------------------|
A|-7---7---7---7----5---5---5---5---------------------|
E|----------------------------------------------------|

   Am7      Em7  G    Am7
E|----------------------------------------------------|
B|---5---5----0----0----5-----------------------------|
G|---5---5----0----0----5-----------------------------|
D|---5---5----0----0----5-----------------------------|
A|----------------------------------------------------|
E|-5---5----0----3----5-------------------------------|

                         Am7      Em7  G
Ain't no sunshine when she's gone
Am7                              Em7  G
   It's not warm when she's away
Am7                              Em7
   Ain't no sunshine when she's gone
                           Dm7    
And she's always gone too long
                   Am7  Em7  G  Am7
Anytime she goes away

[Guitarra]

   Am7          Em7    G      Am7  
E|---------------------------------------------------|
B|-----------5---------------------------------------|
G|---------5-----------------------------------------|
D|-----5------------0------0------5------------------|
A|-5h7---0--------2------2----5h7--------------------|
E|--------------0------3-----------------------------|

   Am7          Em7    G      Am7 
E|---------------------------------------------------|
B|---------------------------------------------------|
G|-----------5---------------------------------------|
D|-----5---5--------0------0------5------------------|
A|-5h7---0--------2------2----5h7--------------------|
E|--------------0------3-----------------------------|

   Em7      Dm7      Am7          Em7    G     Am7  
E|---------------------------------------------------|
B|-------8--------6----------------------------------|
G|-----7--------5--------------5-------------------5-|
D|---9--------7----------5---5--------0-----0--5h7---|
A|-7--------5--------5h7---0--------2------2---------|
E|--------------------------------0------3-----------|

                         Am7     Em7  G
Wonder this time where she's gone
Am7                             Em7  G
   Wonder if she's gone to stay
Am7                              Em7
   Ain't no sunshine when she's gone
                              Dm7
And this house just ain't no home
                   Am7  Em7  G  Am7
Anytime she goes away

[Ponte]

And I know, I know, I know, I know, I know
I know, I know, I know, I know, I know, I know
I know, I know, I know, I know, I know, I know
I know, I know, I know, I know, I know, I know
I know, I know, I know
                
Hey, I ought to leave the young thing alone
                             Am7     Em7  G
But ain't no sunshine when she's gone
Am7                                  Em7  G
   Ain't no sunshine when she's gone
Am7                       Em7 G
   Only darkness everyday
Am7                              Em7
   Ain't no sunshine when she's gone
                              Dm7
And this house just ain't no home
                   Am7  Em7  G
Anytime she goes away
Am7                     Em7  G
   Anytime she goes away
Am7                     Em7  G  Am7
   Anytime she goes away
Composição de Bill Withers
Colaboração e revisão:
131.258 exibições
  • Simplificar cifra
    • ½ Tom
    • Am
    • Bbm
    • Bm
    • Cm
    • C#m
    • Dm
    • Ebm
    • Em
    • Fm
    • F#m
    • Gm
    • G#m
  • Adicionar à lista

    0 comentários

    Mostrar mais comentários

    Conseguiu tocar?

    14 Tocaram 2 Ainda não

    Grave um vídeo tocando Ain't No Sunshine e mande pra gente!

    00:00 / 00:00
    outros vídeos desta música
    repetir qualidade Automático
    Outros vídeos desta música
    00:00 / 00:00
    Automático

    Cifra Club Pro

    Aproveite o Cifra Club com benefícios exclusivos e sem anúncios
    Cifra Club Pro
    Aproveite o Cifra Club com benefícios exclusivos e sem anúncios
    OK