Cifra Club

Aprenda

Bad Guy

Billie Eilish

Tab de baixo: Principal
(Drop D)

   Gm
G|-----------------|-----------------|-----------------|-----------------|
D|-----------------|-----------------|-----------------|-----------------|
A|-----------------|-----------------|-----------------|-----------------|
D|-5-----5-8-5---5-|---5---5-8-5-3---|-5-----5-8-5---5-|---5---5-8-5-3---|

   Cm				       D7
G|-----------------|-----------------|-----------------|-----------------|
D|-----------------|-------------5---|---------4-------|-----------------|
A|-3-----3-6-3---3-|---3---3-6-3-----|-5-5---5---5-----|-----------------|
D|-----------------|-----------------|---------------0-|---0---0---------|

(Afinação Padrão)

   Gm
G|-----------------|-----------------|-----------------|-----------------|
D|-----------------|-----------------|-----------------|-----------------|
A|---------1-------|---------1-------|---------1-------|---------1-------|
E|-3-----3---3---3-|---3---3---3-1---|-3-----3---3---3-|---3---3---3-1---|

   Cm				       D7
G|-----------------|-----------------|-----------------|-----------------|
D|---------1-------|---------1---5---|---------4-------|-----------------|
A|-3-----3---3---3-|---3---3---3-----|-5-5---5---5---5-|---5---5---------|
E|-----------------|-----------------|-----------------|-----------------|
Composição de Billie Eilish / Finneas O'Connell
Colaboração e revisão:
  • Lineu Lucas
189 exibições

0 comentários

Mostrar mais comentários

Conseguiu tocar?

1 Tocaram 0 Ainda não

Grave um vídeo tocando Bad Guy e mande pra gente!

00:00 / 00:00
outros vídeos desta música
repetir qualidade Automático
Outros vídeos desta música
00:00 / 00:00
Automático
OK