Cifra Club

Aprenda

I Love You

Billie Eilish

Cifra: Principal (violão e guitarra)
Quer fazer aulas de música com a gente? Responda essas perguntas
e nos ajude nesse projeto! →
tom: C
[Intro] F7M(11+)  C7M


   F7M(11+)
E|-----------0-----------0------------------|
B|-----0-----------0------------------------|
G|---2-----2-----2-----2--------------------|
D|-3-----3-----3-----3----------------------|
A|------------------------------------------|
E|------------------------------------------|

E|-----------0-----------0------------------|
B|-----0-----------0------------------------|
G|---2-----2-----2-----2-----2--------------|
D|-3-----3-----3-----3-----3----------------|
A|------------------------------------------|
E|------------------------------------------|

   C7M
E|-------0-----------0----------------------|
B|-0-----------0----------------------------|
G|-----0-----0-----0------------------------|
D|---2-----2-----2--------------------------|
A|-3----------------------------------------|
E|------------------------------------------|

E|-----------0-----------0------------------|
B|-----0-----------0------------------------|
G|---0-----0-----0-----0-----0--------------|
D|-2-----2-----2-----2-----2----------------|
A|------------------------------------------|
E|------------------------------------------|

[Primeira Parte]

[Dedilhado Padrão]

   F7M(11+)
E|--------0-----------0---------------------|
B|-0------------0---------------------------|
G|------2-----2-----2-----------------------|
D|-3--3-----3-----3-------------------------|
A|------------------------------------------|
E|------------------------------------------|

E|-----------0-----------0------------------|
B|-----0-----------0------------------------|
G|---2-----2-----2-----2-----2--------------|
D|-3-----3-----3-----3-----3----------------|
A|------------------------------------------|
E|------------------------------------------|

   C7M
E|-------0-----------0----------------------|
B|-0-----------0----------------------------|
G|-----0-----0-----0------------------------|
D|---2-----2-----2--------------------------|
A|-3----------------------------------------|
E|------------------------------------------|

E|-----------0-----------0------------------|
B|-----0-----------0------------------------|
G|---0-----0-----0-----0-----0--------------|
D|-2-----2-----2-----2-----2----------------|
A|------------------------------------------|
E|------------------------------------------|

      F7M(11+)
It's not true
                   C7M
Tell me I've been lied to
              F7M(11+)     
Crying isn't like you
      C7M
Oh oh oh
                  F7M(11+)
What the hell did I do?
                C7M
Never been the type to
                 F7M(11+)
Let someone see right through
       C7M
Oh oh oh

[Refrão]

   F7M     F7M(11+)  F7M     F7M(13)
E|------------------------------------------|
B|-----------0---0-----1---1---3---3--------|
G|---2---2----------------------------------|
D|-3---3---3---3-----3---3---3---3----------|
A|------------------------------------------|
E|------------------------------------------|

   G       G6      G7      G 
E|-----------0---0---1---1---3---3----------|
B|---3---3----------------------------------|
G|------------------------------------------|
D|------------------------------------------|
A|------------------------------------------|
E|-3---3---3---3---3---3---3---3------------|

   Am
E|------------------------------------------|
B|-----1-----1-----1-----1------------------|
G|---2-----2-----2-----2--------------------|
D|------------------------------------------|
A|-0-----0-----0-----0----------------------|
E|------------------------------------------|

   A9
E|------------------------------------------|
B|-----0-----0-----0-----0------------------|
G|---2-----2-----2-----2--------------------|
D|------------------------------------------|
A|-0-----0-----0-----0----------------------|
E|------------------------------------------|

   C
E|------------------------------------------|
B|-----1-----1-----1-----1h3----------------|
G|---0-----0-----0-----0--------------------|
D|------------------------------------------|
A|-3-----3-----3-----3----------------------|
E|------------------------------------------|

   C7M
E|------------------------------------------|
B|-----0-----0-----0-----0------------------|
G|---0-----0-----0-----0--------------------|
D|------------------------------------------|
A|-3-----3-----3-----3----------------------|
E|------------------------------------------|

   F7M
E|------------------------------------------|
B|-----1-----1-----1-----1------------------|
G|---2-----2-----2-----2--------------------|
D|-3-----3-----3-----3----------------------|
A|------------------------------------------|
E|------------------------------------------|

   F7M(11+)
E|------------------------------------------|
B|-----0-----0-----0-----0------------------|
G|---2-----2-----2-----2--------------------|
D|-3-----3-----3-----3----------------------|
A|------------------------------------------|
E|------------------------------------------|
   
   C7M
E|-----------0-----------0------------------|
B|-----0-----------0------------------------|
G|---0-----0-----0-----0--------------------|
D|------------------------------------------|
A|-3-----3-----3-----3----------------------|
E|------------------------------------------|

E|-----------0------------------------------|
B|-----0-----------0------------------------|
G|---0-----0-----0--------------------------|
D|------------------------------------------|
A|-3-----3-----3----------------------------|
E|------------------------------------------|

 F7M            F7M(11+)
Baby won't you take it back
     F7M            F7M(13)
Say you were tryna make me laugh
     G               G6
And nothing has to change today
     G7             G           Am  A9
You didn't mean to say "I love you"
        C  C7M
I love you  
             F7M   F7M(11+)   
And I don't want to
      C7M
Oh oh oh

[Segunda Parte]

   F7M(11+)              C7M
Up all night on another red eye
                 F7M(11+)
I wish we never learned to fly
    C7M
I I I
                 F7M(11+)
Maybe we should just try
                     C7M
To tell ourselves a good lie
                  F7M(11+)
I didn't mean to make you cry
    C7M
I I I

[Refrão]

 F7M            F7M(11+)
Baby won't you take it back
     F7M            F7M(13)
Say you were tryna make me laugh
     G               G6
And nothing has to change today
     G7             G           Am  A9
You didn't mean to say "I love you"
        C  C7M
I love you  
             F7M   F7M(11+)   
And I don't want to
      C7M
Oh oh oh

[Ponte]

   Dm     
E|-----------1------------1-----------------|
B|-----3------------3-----------------------|
G|---2-----2------2-----2-------------------|
D|-0-----0------0-----0---------------------|
A|------------------------------------------|
E|------------------------------------------|

   Em     
E|-----------0------------0-----------------|
B|-----0------------0-----------------------|
G|---0-----0------0-----0-------------------|
D|------------------------------------------|
A|------------------------------------------|
E|-0-----0------0-----0---------------------|

   F7M 
E|------------0-----------0-----------------|
B|------1-----------1-----------------------|
G|----2-----2-----2-----2-------------------|
D|--3-----3-----3-----3---------------------|
A|------------------------------------------|
E|------------------------------------------|

  F7M(11+) 
E|------------0-----------------------------|
B|------0-----------0-----------------------|
G|----2-----2-----2-------------------------|
D|--3-----3-----3---------------------------|
A|------------------------------------------|
E|------------------------------------------|

      Dm
The smile that you gave me
       Em                 F7M  F7M(11+)
Even when you felt like dying

[Refrão]

    F7M          F7M(11+)
We fall apart as it gets dark
    F7M(13)          F7M      
I'm in your arms in central park
         G                 G6
There's nothing you could do or say
   G7               G           Am   A9
I can't escape the way, I love you
         C      C7M
I don't want to
       F7M     F7M(11+)
But I love you
      C7M
Oh oh oh
      F7M(11+)
Oh oh oh
      C7M
Oh oh oh
      F7M(11+)
Oh oh oh
      C7M
Oh oh oh
Composição de Billie Eilish / Finneas O'Connell
Colaboração e revisão:
61.242 exibições
    • ½ Tom
    • A
    • Bb
    • B
    • C
    • Db
    • D
    • Eb
    • E
    • F
    • F#
    • G
    • Ab
  • Adicionar à lista

    0 comentários

    Ver todos os comentários

    Conseguiu tocar?

    29 Tocaram 13 Ainda não

    Grave um vídeo tocando I Love You e nos envie!

    00:00 / 00:00
    Outros vídeos desta música
    Repetir Qualidade Automático
    Outros vídeos desta música
    00:00 / 00:00
    Automático

    Cifra Club Pro

    Aproveite o Cifra Club com benefícios exclusivos e sem anúncios
    Cifra Club Pro
    Aproveite o Cifra Club com benefícios exclusivos e sem anúncios
    OK