Cifra Club

Lovely (feat. Khalid)

Billie Eilish

Cifra: Principal (violão e guitarra)
Selo Cifra Club: esta cifra foi revisada para atender aos critérios oficiais da nossa Equipe de Qualidade.
tom: C (forma dos acordes no tom de F) Capotraste na 7ª casa
[Intro] F7M  Am  Em
        F7M  Am  Em

[Dedilhado - Intro]

E|------------------------------------------|
B|---1---1---1---1---1---1---1---1----------|
G|-2---2---2---2---2---2---2---2------------|
D|------------------------------------------|
A|------------------------------------------|
E|------------------------------------------|

   F7M
E|-------------------------0----------------|
B|---1---1---1---1---1---1---1---1----------|
G|-2---2---2---2---2---2-------2------------|
D|------------------------------------------|
A|------------------------------------------|
E|-1----------------------------------------|

   Am                Em
E|---------------------------0--------------|
B|---1---1---1---1-----0---0-----0----------|
G|-2---2---2---2-----0---0-----0------------|
D|------------------------------------------|
A|-0----------------------------------------|
E|-------------------0----------------------|

   F7M
E|-------------------------0----------------|
B|---1---1---1---1---1---1---1---1----------|
G|-2---2---2---2---2---2-------2------------|
D|------------------------------------------|
A|------------------------------------------|
E|-1----------------------------------------|

   Am                Em
E|---------0-----------------0--------------|
B|---1---1---1---1-----0---0---0---0--------|
G|-2---2-------2-----0---0-------0----------|
D|------------------------------------------|
A|-0----------------------------------------|
E|-------------------0----------------------|

[Primeira Parte]

  F7M
Thought I found a way
  Am           
Thought I found
           Em
A way (yea I found)
         F7M
But you never

Go away

(never go away)
      Am    
So I guess I
               Em
Gotta stay now

[Pré-Refrão]

                  F7M
But I Know, some day I'll
        Am      Em
Make it out of here

Even if it
 F7M
Takes all night
      Am      Em
Or a hundred years
                 F7M
Need a place to hide, but
         Am       Em
I can't find One near
             F7M
Wanna feel alive, outside
       Am       Em
I can fight my fear

[Refrão]

F7M
Isn't it lovely all alone
 Am 
Heart made of glass, my
 Em
Mind of stone
 F7M            
Tear me to pieces
            
Skin to bone
Am         Em         F7M
   Hello, welcome home

[Segunda Parte]

Walkin' out

Of town
 Am                       
Lookin' for

A better place
  Em
(Lookin' for

A better place)
 F7M
Something's

On my mind
Am       
Always in
             Em
My headspace

[Pré-Refrão]

                  F7M
But I Know, some day I'll
        Am      Em
Make it out of here

Even if it
 F7M
Takes all night
      Am      Em
Or a hundred years
                 F7M
Need a place to hide, but
         Am       Em
I can't find One near
             F7M
Wanna feel alive, outside
       Am       Em
I can fight my fear

[Refrão]

F7M
Isn't it lovely, all alone
 Am 
Heart made of glass, my
 Em
Mind of stone
 F7M           
Tear me to pieces
            
Skin to bone
Am         Em         F7M
   Hello, welcome home

[Final] Am  Em  F7M 
        Am  Em  F7M
        Am  Em

F7M  Am         Em     F7M
        Hello, welcome home
Outros vídeos desta música
    767.211 exibições
    • Simplificar cifra
      • ½ Tom
      • A
      • Bb
      • B
      • C
      • Db
      • D
      • Eb
      • E
      • F
      • F#
      • G
      • Ab
    • Adicionar à lista

    Afinação da cifra

    Afinador online

      0 comentários

      Ver todos os comentários

      Conseguiu tocar?

      330Tocaram50Ainda não

      Grave um vídeo tocando Lovely (feat. Khalid) e nos envie!

      Toque também

      1. Imagem do artista KhalidLovely Khalid
      2. Imagem do artista FinneasBreak My Heart Again Finneas
      3. Imagem do artista LordeRoyals Lorde
      4. Imagem do artista King Princess1950 King Princess

      Entre para o Cifra Club PRO

      Tenha acesso a benefícios exclusivos no App e no Site

      • Chega de anúncios

      • Badges exclusivas

      • Mais recursos no app do Afinador

      • Atendimento Prioritário

      • Aumente seu limite de lista

      • Ajude a produzir mais conteúdo

      Cifra Club Pro

      Aproveite o Cifra Club com benefícios exclusivos e sem anúncios
      Cifra Club Pro
      Aproveite o Cifra Club com benefícios exclusivos e sem anúncios
      Ops (: Contenido disponible sólo en portugués.
      OK