Cifra Club

Pins And Needles

Billy Talent

Cifra: Principal (violão e guitarra)
tom: C
  Here's Pins and Needles. I'm pretty sure it's 100% correct, find any corrections? 
me.

Name: Brendan
Email: *

Updated: July 19th

  Put in an alternate intro that I found was easier and sounds more like the CD, and I 
in slides in the verse that I didn't hear the first time. Should be PERFECT now.

     Q    E   E  E  E  E  E     E  E  E  E   E  E  Q
e||--------------------------|---------------5------------|
B||--------------------------|--6-----8---------6---------|
G||--------------------------|--7-----8------------7/-----|
D||--------------7-----8-----|----------------------------|
A||-------5h--6--------------|----------------------------|
D||--5--------------5-----0--|-----0-----0----------------|


  Q    E   E  E  E  Q       Q    E  E  E  E  Q       Q    E   E  E  E  E  E
-------------------------|------------------------|--------------------------|
-------------------------|-------------------1----|--------------------------|
-------------------------|----------0--2----------|--------------------------|
--------------0-----3----|-------3----------------|--------------7-----8-----|
-------1h--3-------------|------------------------|-------5h--6--------------|
--1--------------1-------|--0-------------0-------|--5--------------5-----0--|

  E  E  E  E   E   E  Q        Q    E   E  E  E  Q       Q    E  E  E  E  Q
----------------------------|-------------------------|------------------------|
--6-----8-----10------------|-------------------------|-------------------1----|
--7-----8---------10--7\----|-------------------------|----------0--2----------|
----------------------------|--------------0-----3----|-------3----------------|
----------------------------|-------1h--3-------------|------------------------|
-----0-----0----------------|--1--------------1-------|--0-------------0-------|

  W                   W                   W                   W
-------------------|-------------------|-------------------|-------------------|
-------------------|-------------------|-------------------|-------------------|
-------------------|-------------------|-------------------|-------------------|
--5----------------|--0----------------|--1----------------|--0----------------|
--5----------------|--0----------------|--1----------------|--0----------------|
--5----------------|--0----------------|--1----------------|--0----------------|

  W                   W                   Q    E   E  E  E  Q
-------------------|-------------------|-------------------------|
-------------------|-------------------|-------------------------|
-------------------|-------------------|-------------------------|
--5----------------|--0----------------|--------------0-----3----|
--5----------------|--0----------------|-------1h--3-------------|
--5----------------|--0----------------|--1--------------1-------|

  Q    E  E  E  E  Q       Q    E  E  Q    E  E     Q    E  E  E  E  Q
------------------------|--3----------3----------|------------------------|
-------------------1----|--4----4----------------|------------------------|
----------0--2----------|--5-------5-------5-----|-------------------5----|
-------3----------------|--5------------------5--|--3----7-----5--7-------|
------------------------|--3---------------------|--3---------------------|
--0-------------0-------|------------------------|--3-------3-------------|

  E   E  E  E  E  E  Q       E  E  E  E  E  E  Q        Q    E  E  E  E  E  E
--------------------------|--------------------------|-------------------------|
--------------------------|--------------------------|-------------------------|
--------------------------|--------5-----------------|-------------------------|
------------5--8--7--5----|--7-----------8-----7\----|----------3--5--3--1-----|
---------8----------------|--------------------------|-------1--------------0--|
--3S--5-------------------|-----0-----0-----0--------|--1----------------------|

  Q    Q    E  E   Q       W                   W
------------------------|--3----------------|-------------------|
---------------1S--3----|--4----------------|-------------------|
------------3-----------|--5----------------|-------------------|
-------3----------------|--5----------------|--3----------------|
--1---------------------|--3----------------|--3----------------|
------------------------|-------------------|--3----------------|

  Q    E   E  E  E  E  E     E  E  E  E   E  E  Q
--------------------------|---------------5------------|
--------------------------|--6-----8---------6---------|
--------------------------|--7-----8------------7\-----|
--------------7-----8-----|----------------------------|
-------5h--6--------------|----------------------------|
--5--------------5-----0--|-----0-----0----------------|

  Q    E   E  E  E  Q       Q    E  E  E  E  Q       Q    E   E  E  E  E  E
-------------------------|------------------------|--------------------------|
-------------------------|-------------------1----|--------------------------|
-------------------------|----------0--2----------|--------------------------|
--------------0-----3----|-------3----------------|--------------7-----8-----|
-------1h--3-------------|------------------------|-------5h--6--------------|
--1--------------1-------|--0-------------0-------|--5--------------5-----0--|

  E  E  E  E   E  E  Q        Q    E   E  E  E  Q       Q    E  E  E  E  Q
---------------5------------|-------------------------|------------------------|
--6-----8---------6---------|-------------------------|-------------------1----|
--7-----8------------7/-----|-------------------------|----------0--2----------|
----------------------------|--------------0-----3----|-------3----------------|
----------------------------|-------1h--3-------------|------------------------|
-----0-----0----------------|--1--------------1-------|--0-------------0-------|

  W                   W                   W                   W
-------------------|-------------------|-------------------|-------------------|
-------------------|-------------------|-------------------|-------------------|
-------------------|-------------------|-------------------|-------------------|
--5/---------------|--0----------------|--1----------------|--0----------------|
--5/---------------|--0----------------|--1----------------|--0----------------|
--5/---------------|--0----------------|--1----------------|--0----------------|

  W                   W                   Q    E   E  E  E  Q
-------------------|-------------------|-------------------------|
-------------------|-------------------|-------------------------|
-------------------|-------------------|-------------------------|
--5/---------------|--0----------------|--------------0-----3----|
--5/---------------|--0----------------|-------1h--3-------------|
--5/---------------|--0----------------|--1--------------1-------|

  Q    E  E  E  E  Q       W                   W
------------------------|-------------------|-------------------|
-------------------1----|-------------------|-------------------|
----------0--2----------|-------------------|-------------------|
-------3----------------|--5/---------------|--0----------------|
------------------------|--5/---------------|--0----------------|
--0-------------0-------|--5/---------------|--0----------------|

  W                   W                   W                   W
-------------------|-------------------|-------------------|-------------------|
-------------------|-------------------|-------------------|-------------------|
-------------------|-------------------|-------------------|-------------------|
--1----------------|--0----------------|--5/---------------|--0----------------|
--1----------------|--0----------------|--5/---------------|--0----------------|
--1----------------|--0----------------|--5/---------------|--0----------------|

  Q    E   E  E  E  Q       Q    E  E  E  E  Q       Q    E  E  Q    E  E
-------------------------|------------------------|--3----------3----------|
-------------------------|-------------------1----|--4----4----------------|
-------------------------|----------0--2----------|--5-------5-------5-----|
--------------0-----3----|-------3----------------|--5------------------5--|
-------1h--3-------------|------------------------|--3---------------------|
--1--------------1-------|--0-------------0-------|------------------------|

  Q    E  E  E  E  Q       E   E  E  E  E  E  Q       E  E  E  E  E  E  Q
------------------------|--------------------------|--------------------------|
------------------------|--------------------------|--------------------------|
-------------------5----|--------------------------|--------5-----------------|
--3----7-----5--7-------|------------5--8--7--5----|--7-----------8-----7\----|
--3---------------------|---------8----------------|--------------------------|
--3-------3-------------|--3S--5-------------------|-----0-----0-----0--------|

  Q    E  E  E  E  E  E     Q    Q    E  E   Q       Q    E  E  Q    E  E
-------------------------|------------------------|--3----------3----------|
-------------------------|---------------1S--3----|--4----4----------------|
-------------------------|------------3-----------|--5-------5-------5-----|
----------3--5--3--1-----|-------3----------------|--5------------------5--|
-------1--------------0--|--1---------------------|--3---------------------|
--1----------------------|------------------------|------------------------|

  Q    E  E  E  E  Q       E   E  E  E  E  E  Q       E  E  E  E  E  E  Q
------------------------|--------------------------|--------------------------|
------------------------|--------------------------|--------------------------|
-------------------5----|--------------------------|--------5-----------------|
--3----7-----5--7-------|------------5--8--7--5----|--7-----------8-----7\----|
--3---------------------|---------8----------------|--------------------------|
--3-------3-------------|--3S--5-------------------|-----0-----0-----0--------|

  Q    E  E  E  E  E  E     Q    Q    E  E   Q       W
-------------------------|------------------------|--3----------------|
-------------------------|---------------1S--3----|--4----------------|
-------------------------|------------3-----------|--5----------------|
----------3--5--3--1-----|-------3----------------|--5----------------|
-------1--------------0--|--1---------------------|--3----------------|
--1----------------------|------------------------|-------------------|

  W                   Q    E   E  E  E  E  E     E  E  E  E   E   E  Q
-------------------|--------------------------|----------------------------|
-------------------|--------------------------|--6-----8-----10------------|
-------------------|--------------------------|--7-----8---------10--7\----|
--3----------------|--------------7-----8-----|----------------------------|
--3----------------|-------5h--6--------------|----------------------------|
--3----------------|--5--------------5-----0--|-----0-----0----------------|

  Q    E   E  E  E  Q       Q    E  E  E  E  Q       E  E  E  E  E  E  E  E
-------------------------|------------------------|--------------------------|
-------------------------|-------------------1----|--------------------------|
-------------------------|----------0--2----------|--------------------------|
--------------0-----3----|-------3----------------|--1--1--1--1--1--1--1--1--|
-------1h--3-------------|------------------------|--1--1--1--1--1--1--1--1--|
--1--------------1-------|--0-------------0-------|--1--1--1--1--1--1--1--1--|

  E  E  E  E  E  E  E  E     E  E  E  E  E  E  Q       Q    Q    Q    Q
--------------------------|-------------------------|----------------------|
--------------------------|-------------------------|----------------------|
--------------------------|--------------------5----|----------------------|
--5--5--5--5--5--5--5--5--|--3--3--7--3--5--7-------|--1----1----1----1----|
--5--5--5--5--5--5--5--5--|--3--3-----3-------------|--1----1----1----1----|
--5--5--5--5--5--5--5--5--|--3--3-----3-------------|--1----1----1----1----|

  E  E  E  E  E  E  E  E     E  E  E  E  E  E  E  E     E  E  E  E  E  E  Q
--------------------------|--------------------------|-------------------------|
--------------------------|--------------------------|-------------------------|
--------------------------|--------------------------|--------------------5----|
--1--1--1--1--1--1--1--1--|--5--5--5--5--5--5--5--5--|--3--3--7--3--5--7-------|
--1--1--1--1--1--1--1--1--|--5--5--5--5--5--5--5--5--|--3--3-----3-------------|
--1--1--1--1--1--1--1--1--|--5--5--5--5--5--5--5--5--|--3--3-----3-------------|

  Q    Q    Q    Q       E  E  E  E  E  E  E  E     E  E  E  E  E  E  E  E
----------------------|--------------------------|--------------------------|
----------------------|--------------------------|--------------------------|
----------------------|--------------------------|--------------------------|
--1----1----1----1----|--1--1--1--1--1--1--1--1--|--5--5--5--5--5--5--5--5--|
--1----1----1----1----|--1--1--1--1--1--1--1--1--|--5--5--5--5--5--5--5--5--|
--1----1----1----1----|--1--1--1--1--1--1--1--1--|--5--5--5--5--5--5--5--5--|

  E  E  E  E  E  E  Q       Q    Q    Q    Q       E  E  E  E  E  E  E  E
-------------------------|----------------------|--------------------------|
-------------------------|----------------------|--------------------------|
--------------------5----|----------------------|--------------------------|
--3--3--7--3--5--7-------|--1----1----1----1----|--1--1--1--1--1--1--1--1--|
--3--3-----3-------------|--1----1----1----1----|--1--1--1--1--1--1--1--1--|
--3--3-----3-------------|--1----1----1----1----|--1--1--1--1--1--1--1--1--|

  E  E  E  E  E  E  E  E     E  E  E  E  E  E  Q       Q    Q    Q    Q
--------------------------|-------------------------|----------------------|
--------------------------|-------------------------|----------------------|
--------------------------|--------------------5----|----------------------|
--5--5--5--5--5--5--5--5--|--3--3--7--3--5--7-------|--1----1----1----1----|
--5--5--5--5--5--5--5--5--|--3--3-----3-------------|--1----1----1----1----|
--5--5--5--5--5--5--5--5--|--3--3-----3-------------|--1----1----1----1----|

  Q    E  E  Q    E  E     Q    E  E  E  E  Q       E   E  E  E  E  E  Q
--3----------3----------|------------------------|--------------------------|
--4----4----------------|------------------------|--------------------------|
--5-------5-------5-----|-------------------5----|--------------------------|
--5------------------5--|--3----7-----5--7-------|------------5--8--7--5----|
--3---------------------|--3---------------------|---------8----------------|
------------------------|--3-------3-------------|--3S--5-------------------|

  E  E  E  E  E  E  Q        Q    E  E  E  E  E  E     Q    Q    E  E   Q
--------------------------|-------------------------|------------------------|
--------------------------|-------------------------|---------------1S--3----|
--------5-----------------|-------------------------|------------3-----------|
--7-----------8-----7\----|----------3--5--3--1-----|-------3----------------|
--------------------------|-------1--------------0--|--1---------------------|
-----0-----0-----0--------|--1----------------------|------------------------|

  Q    E  E  Q    E  E     Q    E  E  E  E  Q       E   E  E  E  E  E  Q
--3----------3----------|------------------------|--------------------------|
--4----4----------------|------------------------|--------------------------|
--5-------5-------5-----|-------------------5----|--------------------------|
--5------------------5--|--3----7-----5--7-------|------------5--8--7--5----|
--3---------------------|--3---------------------|---------8----------------|
------------------------|--3-------3-------------|--3S--5-------------------|

  E  E  E  E  E  E  Q        Q    E  E  E  E  E  E     Q    Q    E  E   Q
--------------------------|-------------------------|------------------------|
--------------------------|-------------------------|---------------1S--3----|
--------5-----------------|-------------------------|------------3-----------|
--7-----------8-----7\----|----------3--5--3--1-----|-------3----------------|
--------------------------|-------1--------------0--|--1---------------------|
-----0-----0-----0--------|--1----------------------|------------------------|

  Q    E  E  Q    E  E     Q    E  E  E  E  Q       E  E   E  E  E  E  E  E
--3----------3----------|------------------------|---------------------------|
--4----4----------------|------------------------|---------------------------|
--5-------5-------5-----|-------------------5----|--L------------------------|
--5------------------5--|--3----7-----5--7-------|---------------5--8--7--5--|
--3---------------------|--3---------------------|------------8--------------|
------------------------|--3-------3-------------|-----3S--5-----------------|

  E  E  E  E  E  E  E  E      E  E  E  E  Q    Q       E  Q    Q    E  E   E
---------------------------|------------------------|-------------------------|
---------------------------|------------------------|------------------1S--3--|
-----------5---------------|------------------------|---------------3---------|
--L--7-----------8-----7S--|--1--1--5--3--1----0----|----------3--------------|
---------------------------|------------------------|--0--1-------------------|
--------0-----0-----0------|------------------------|-------------------------|

  W                   W                   Q    E   E  E  E  E  E
--3----------------|-------------------|--------------------------|
--4----------------|-------------------|--------------------------|
--5----------------|-------------------|--------------------------|
--5----------------|--3----------------|--------------7-----8-----|
--3----------------|--3----------------|-------5h--6--------------|
-------------------|--3----------------|--5--------------5-----0--|

  E  E  E  E   E  E  Q        Q    E   E  E  E  Q       Q    E  E  E  E  Q
---------------5-----------|-------------------------|------------------------|
--6-----8---------6--------|-------------------------|-------------------1----|
--7-----8------------7\----|-------------------------|----------0--2----------|
---------------------------|--------------0-----3----|-------3----------------|
---------------------------|-------1h--3-------------|------------------------|
-----0-----0---------------|--1--------------1-------|--0-------------0-------|

  Q    E   E  E  E  E  E     E  E  E  E   E  E  Q
--------------------------|---------------5------------|
--------------------------|--6-----8---------6---------|
--------------------------|--7-----8------------7\-----|
--------------7-----8-----|----------------------------|
-------5h--6--------------|----------------------------|
--5--------------5-----0--|-----0-----0----------------|

  Q    E   E  E  E  Q       Q    E  E  E  E  Q       W
-------------------------|------------------------|-------------------|
-------------------------|-------------------1----|-------------------|
-------------------------|----------0--2----------|-------------------|
--------------0-----3----|-------3----------------|--5----------------|
-------1h--3-------------|------------------------|--5----------------|
--1--------------1-------|--0-------------0-------|--5----------------|

  W
-------------------||
-------------------||
-------------------||
--L----------------||
--L----------------||
--L----------------||

Duration Legend
---------------
W - whole
H - half
Q - quarter
E - 8th
S - 16th
T - 32nd
X - 64th
. - note dotted


Tablature Legend
----------------
L - tied note
x - dead note
(n) - ghost note
> - accentuded note
NH - natural harmonic
AH - artificial harmonic
TH - tapped harmonic
SH - semi harmonic
PH - pitch harmonic
h - hammer on
p - pull off
b - bend
br - bendRelease
pb - preBend
pbr - preBendRelease
brb - bendReleaseBend
\n/ - tremolo bar dip
\n - tremolo bar dive
-/n - tremolo bar Release up
/n\ - tremolo bar inverted dip
/n - tremolo bar return
-\n - tremolo bar Release down
S - shift slide
s - legato slide
/ -  slide into from below or out of upwards
\ -  slide into from above or out of downwards
~ - vibrato
W - wide vibrato
tr - trill
TP - tremolo picking
T - tapping
S - slap
P - pop
< - fade in
^ - brush up
v - brush down
00:00 / 00:00
Outros vídeos desta música
Repetir
Outros vídeos desta música
Composição de Billy Talent
1.538 exibições
    • ½ Tom
    • A
    • Bb
    • B
    • C
    • Db
    • D
    • Eb
    • E
    • F
    • F#
    • G
    • Ab
  • Adicionar à lista

    0 comentários

    Ver todos os comentários

    Entre para oCifra Club PRO

    Tenha acesso a benefícios exclusivos no App e no Site

    • Chega de anúncios

    • Prioridade de compra em lançamentos

    • Mais recursos no app do Afinador

    • Atendimento Prioritário

    • Descontos nos produtos Cifra Club

    • Ajude a produzir mais conteúdo

    00:00 / 00:00

    Cifra Club Pro

    Aproveite o Cifra Club com benefícios exclusivos e sem anúncios
    Cifra Club Pro
    Aproveite o Cifra Club com benefícios exclusivos e sem anúncios
    OK