Cifra Club

Dani

Biquini Cavadão

Tab de baixo: Principal
Solo
G|-14h16-14-12-12h14-12-11-11h12-11--------|-14/16-14-12-12h14-12-11-11h12-14-16-16--16----------|
D|----------------------------------12h14\-|--------------------------------------------17-------|
A|-----------------------------------------|----------------------------------------------14\----|
E|-----------------------------------------|---------------------------------------------------3\|

Versos
G|--------------------------7------------|----------------------9--------------|
D|-------------5-4--------5--------------|-------5-4--------7/9----------------|
A|---------2-5-----3-3/7------------3-5--|---2-5-----3-3/7----------------3-5--|
E|-3\15/-3--------------------5-5-7------|-3-----------------------5-5-7-------|

Refrão
G|------------------------------------------------------------|
D|--------------------------5h7p5-------(5)-5h7---------------|
A|---------------2-2-2/-7-7--------5-5-----------3-3-(3)-4-5--|
E|-3--3-0-3-0-3-----------------------------------------------|

G|---------------------------------------------------------------|
D|--------------------------5h7p5-------(5)-5h7------------------|
A|---------------2-2-2/-7-7--------5-5-----------3-3--0-3-4-5-5-5|
E|-3--3-0-3-0-3--------------------------------------------------|

[No solo o baixo varia entre o desenho do verso e do refrão]

Depois do Solo (na verdade é um baixo de 5 cordas)
G|-----------------------------------|
D|-----------------------------------|
A|------5---7---------5---7----------|
E|--3-------------3------------3/15\-|

Variação no Verso
G|---------------------12-11-9-----9\--|
D|-------5-4--------9----------12------|
A|---2-5-----3-3/7---------------------|
E|-3-----------------------------------|

Último Refrão
G|------------------------------------------------------|
D|------------------------------------------------------|
A|---------2-2-2-2--7-7-7-7--5-5-5-5--3-3-3-3--5--------|
E|-3-3-3-3-------------------------------------------3--|

_______________________________________________________
Contribuição: José Mário Zanini(jmzaninis@bol.com.br)
00:00 / 00:00
Outros vídeos desta música
Repetir
Outros vídeos desta música
Composição de Dudi Cardoso
17.925 exibições

0 comentários

Ver todos os comentários

Entre para oCifra Club PRO

Tenha acesso a benefícios exclusivos no App e no Site

  • Chega de anúncios

  • Prioridade de compra em lançamentos

  • Mais recursos no app do Afinador

  • Atendimento Prioritário

  • Descontos nos produtos Cifra Club

  • Ajude a produzir mais conteúdo

00:00 / 00:00

Cifra Club Pro

Aproveite o Cifra Club com benefícios exclusivos e sem anúncios
Cifra Club Pro
Aproveite o Cifra Club com benefícios exclusivos e sem anúncios
OK