Cifra Club

Escuta Aqui

Biquini Cavadão

Cifra: Principal (violão e guitarra)
Selo Cifra Club: esta cifra foi revisada para atender aos critérios oficiais da nossa Equipe de Qualidade.
tom: A
Intro: (A D A D) 2 Vezes
e|-------------------------------------------------------------------
B|-------------------------------------------------------------------
G|---4-4-4-2-2-2-2---2-4----4-4-4-2-2-2-2---2------------------------
D|-----------------5----------------------5---5----------------------
A|-5----------------------5------------------------------------------
E|-------------------------------------------------------------------

A       D
Escuta aqui
A             D
Eu não sou culpado de tudo
A       D
Se não vi
Bm              
que as coisas iam
E
mal, me desculpe
A      D
Estou aqui
A              D
Isso é o que importa agora
A     D           Bm
E não vou criar palavras,
     E
de paraíso

<= Refrão
F#m                D
Eu preciso de um espelho
        Bm        F#m
Eu preciso te escutar
        E                D
Que o silencio vai alimentar
                 A
a minha tristeza

Repete-> Intro

A     D
Olha aqui
A            D
Eu não estou farto de tudo
A D               Bm            E
 Apenas vejo um caminho cnfuso
     A          D
tudo bem, estou aqui
A              D
Isso é o que importa agora
A     D             Bm  
E não vou criar palavras
   E
de paraíso

Repete-> Refrão 2x

Bm  D               F#m
Não vou beijar teus pés, nem
E
vou te ignorar
D  Bm        F#m        E
Só quero uma chance pra fazer voce
      D         
acreditar

Solo: A D A D A D Bm E

Repete-> Refrão 2x

Repete-> Intro

A       D    A D
Escuta aqui


Versão 2
--------------------------


Intro: (Ab Db Ab Db Ab Db Ab Db)
e|-------------------------------------------------------------------
B|-------------------------------------------------------------------
G|---5-5-5--3---3---3-5--5-5-5--5-3---3----3---3---------------------
D|------------6---6-----------------6---6----6---6-------------------
A|-------------------------------------------------------------------
E|-------------------------------------------------------------------

e|-------------------------------------------------------------------
B|-------------------------------------------------------------------
G|--5--5-3---3----3---5--5-5-5--5-3---3----3---3---------------------
D|---------6---6----6---------------6---6----6---6-------------------
A|-------------------------------------------------------------------
E|-------------------------------------------------------------------

Ab      Db
Escuta aqui
Ab            Db
Eu não sou culpado de tudo
Ab      Db
Se não vi
Bbm             
que as coisas iam
Eb
mal, me desculpe
Ab      Db
Estou aqui
Ab             Db
Isso é o que importa agora
Ab    Db          Bbm
E não vou criar palavras,
     Eb
de paraíso

<= Refrão
Fm                 Db
Eu preciso de um espelho
        Bbm       Fm
Eu preciso te escutar
        Eb               Db
Que o silencio vai alimentar
                 Ab
a minha tristeza

Repete-> Intro

Ab     Db
Olha aqui
Ab           Db
Eu não estou farto de tudo
Ab Db             Bbm           Eb
 Apenas vejo um caminho confuso
     Ab         Db
tudo bem, estou aqui
Ab             Db
Isso é o que importa agora
Ab    Db            Bbm  
E não vou criar palavras
   Eb
de paraíso

Repete-> Refrão 2x

Bbm  Db               Fm
Não vou beijar teus pés, nem
Eb
vou te ignorar
Db  Bbm        Fm       Eb
Só quero uma chance pra fazer voce
      Db        
acreditar

Solo: Ab Db Ab Db Ab Db Bbm Eb

Repete-> Refrão 2x

Repete-> Intro

Ab       Db    Ab Db
Escuta aqui
Outros vídeos desta música
    53.389 exibições
    • Simplificar cifra
      • ½ Tom
      • A
      • Bb
      • B
      • C
      • Db
      • D
      • Eb
      • E
      • F
      • F#
      • G
      • Ab
    • Adicionar à lista

    Afinação da cifra

    Afinador online

      0 comentários

      Ver todos os comentários

      Entre para o Cifra Club PRO

      Tenha acesso a benefícios exclusivos no App e no Site

      • Chega de anúncios

      • Badges exclusivas

      • Mais recursos no app do Afinador

      • Atendimento Prioritário

      • Aumente seu limite de lista

      • Ajude a produzir mais conteúdo

      Cifra Club Pro

      Aproveite o Cifra Club com benefícios exclusivos e sem anúncios
      Cifra Club Pro
      Aproveite o Cifra Club com benefícios exclusivos e sem anúncios
      Ops (: Contenido disponible sólo en portugués.
      OK