Cifra Club

Aprenda

Last Goodbye

Black Label Society

Cifra: Principal (violão e guitarra)
tom: E
Tuning: Standerd

This is an piano song, so I tried to put the piano chords, to guitar chords. And there 
an solo.

Intro

   E     F#m  Aadd2 Bsus
E|--0--|--0--|--0--|--0--|
B|--0--|--0--|--0--|--0--|
G|--1--|--2--|--2--|--4--|
D|--2--|--2--|--2--|--4--|
A|--2--|--0--|--0--|--2--|
E|--0--|--2--|--X--|--X--|

Verse
Drums come in
   E     F#m  Aadd2 Bsus
E|--0--|--0--|--0--|--0--|
B|--0--|--0--|--0--|--0--|
G|--1--|--2--|--2--|--4--|
D|--2--|--2--|--2--|--4--|
A|--2--|--0--|--0--|--2--|
E|--0--|--2--|--X--|--X--|

Then you here the base come in (still in verse)

  C#m7  Aadd2   E     B
E|--0--|--0--|--0--|--4--|
B|--0--|--0--|--0--|--4--|
G|--9--|--2--|--1--|--4--|
D|--9--|--2--|--2--|--4--|
A|--0--|--0--|--2--|--2--|
E|--9--|--X--|--0--|--X--|

     Verse   / Chorus starts here    \
  C#m7  Aadd2|  E   C#m7    B     A  |
E|--0--|--0--|--0--|--0--|--4--|--0--|
B|--0--|--0--|--0--|--0--|--4--|--2--|
G|--9--|--2--|--1--|--9--|--4--|--2--| Chorus 2X
D|--9--|--2--|--2--|--9--|--4--|--2--|
A|--0--|--0--|--2--|--0--|--2--|--0--|
E|--9--|--X--|--0--|--9--|--X--|--0--|
             |                       |
             \                       /

Then everything again.

Play the intro 2X when the drums thingie is going on.
And instead of F#m play C#m7, but I am not sure of that.

I am not sure but I think they play the intro under the whole solo, or intro and the verse.

Solo:
E|-21\\---------------------------------|
B|--------------------------------------|
G|---------------------------9--11-/13--|
D|---------------------9-11-------------|
A|------------7--9-/11------------------|
E|------7--9----------------------------|

This is not the correct thing but it indicates what notes you must play

Solo:
E|--17--16--14--------------|
B|--------------17---14-----|
G|----------------------16--|
D|--------------------------|
A|--------------------------|
E|--------------------------|

E|--17--16--14--------------|
B|---------------19b21~-----|
G|--------------------------|
D|--------------------------|
A|--------------------------|
E|--------------------------|

E|--17--16--14-------------------------------|
B|--------------17---19b21~b19~--------------|
G|------------------------------11b13~b11~---|
D|-------------------------------------------|
A|-------------------------------------------|
E|-------------------------------------------|

E|--17--16--14--------------|
B|--------------17---14-----|
G|----------------------16--|
D|--------------------------|
A|--------------------------|
E|--------------------------|

E|--17--16--14---19b21~-----|
B|--------------------------|
G|--------------------------|
D|--------------------------|
A|--------------------------|
E|--------------------------|
                                  Some fast picking here
E|--17--16--14-------------------12-999------------------|
B|--------------17---19b21~b19~---------1212-999-9h10p9--|
G|-------------------------------------------------------|
D|-------------------------------------------------------|
A|-------------------------------------------------------|
E|-------------------------------------------------------|
    2X
E|-----------|---------------|
B|-------9~--|-------9h10p9--|
G|--9h10-----|--9h10---------| and so on
D|-----------|---------------|
A|-----------|---------------|
E|-----------|---------------|

Last time
     1X           1X
E|-----------|----------------------------|
B|-------9~--|-------9h10p9---------------|
G|--9h10-----|--9h10--------11b13b11--9~--|
D|-----------|----------------------------|
A|-----------|----------------------------|
E|-----------|----------------------------|
Composição de Zakk Wylde
Colaboração e revisão:
  • Élison Duarte
14.342 exibições
    • ½ Tom
    • A
    • Bb
    • B
    • C
    • Db
    • D
    • Eb
    • E
    • F
    • F#
    • G
    • Ab
  • Adicionar à lista

    0 comentários

    Ver todos os comentários

    Conseguiu tocar?

    7 Tocaram 0 Ainda não

    Grave um vídeo tocando Last Goodbye e nos envie!

    00:00 / 00:00
    outros vídeos desta música
    repetir qualidade Automático
    Outros vídeos desta música
    00:00 / 00:00
    Automático

    Cifra Club Pro

    Aproveite o Cifra Club com benefícios exclusivos e sem anúncios
    Cifra Club Pro
    Aproveite o Cifra Club com benefícios exclusivos e sem anúncios
    OK