Cifra Club

Aprenda

Iron Man

Black Sabbath

Cifra: Principal (violão e guitarra)
Tom: Em
[Intro]

[Efeito incial]

E|---------------------------------------------------|
B|---------------------------------------------------|
G|---------------------------------------------------|
D|---------------------------------------------------|
A|---------------------------------------------------|
E|-0b3r0---0b3r0---0b3r0-----------------------------|

I am Iron Man

[Riff 1]

( B5  D5  E5 )
( G5  F#5  G5  F#5  G5  F#5 ) 
( D5  E5 )
( B5  D5  E5 )
( G5  F#5  G5  F#5  G5  F#5 ) 
( D5  E5 )

E|---------------------------------------------------|
B|---------------------------------------------------|
G|---------------------------------------------------|
D|---------------------------------------------------|
A|-9-12--12-14-14--17\16-17\16-17\16-12-12-14-14-----|
E|-7-10--10-12-12--15\14-15\14-15\14-10-10-12-12-----|

E|---------------------------------------------------|
B|---------------------------------------------------|
G|---------------------------------------------------|
D|---------------------------------------------------|
A|-9-12--12-14-14--17\16-17\16-17\16-12-12-14-14-----|
E|-7-10--10-12-12--15\14-15\14-15\14-10-10-12-12-----|

[Primeira Parte]

[Riff]

E|---------------------------------------------------|
B|---------------------------------------------------|
G|---------------------------------------------------|
D|------------5p4-5p4-5p4----------------------------|
A|---5-5-7-7--------------5-5-7-7--------------------|
E|-7-------------------------------------------------|

E|---------------------------------------------------|
B|---------------------------------------------------|
G|---------------------------------------------------|
D|------------5p4-5p4-5p4----------------------------|
A|---5-5-7-7--------------5-5-7-7--------------------|
E|-7-------------------------------------------------|

Has he lost his mind?
Can he see or is he blind?
Can he walk at all
Or if he moves will he fall?

[Riff 1]

( B5  D5  E5 )
( G5  F#5  G5  F#5  G5  F#5 ) 
( D5  E5 )

E|---------------------------------------------------|
B|---------------------------------------------------|
G|---------------------------------------------------|
D|---------------------------------------------------|
A|-9-12--12-14-14--17\16-17\16-17\16-12-12-14-14-----|
E|-7-10--10-12-12--15\14-15\14-15\14-10-10-12-12-----|

[Primeira Parte]

[Riff]

E|---------------------------------------------------|
B|---------------------------------------------------|
G|---------------------------------------------------|
D|------------5p4-5p4-5p4----------------------------|
A|---5-5-7-7--------------5-5-7-7--------------------|
E|-7-------------------------------------------------|

E|---------------------------------------------------|
B|---------------------------------------------------|
G|---------------------------------------------------|
D|------------5p4-5p4-5p4----------------------------|
A|---5-5-7-7--------------5-5-7-7--------------------|
E|-7-------------------------------------------------|

Is he alive or dead?
Has he thoughts within his head?
Well just pass him there
Why should we even care?

[Riff 2]

E|---------------------------------------------------|
B|---------------------------------------------------|
G|---------------------------------------------------|
D|---------------------------------------------------|
A|-----5---------------------------------------------|
E|-7-7---7-7-6-5-5-5---0-4-5-5-6---------------------|

E|---------------------------------------------------|
B|---------------------------------------------------|
G|---------------------------------------------------|
D|---------------------------------------------------|
A|-----5---------------------------------------------|
E|-7-7---7-7-6-5-5-5---0-4-5-5-6---------------------|

E|---------------------------------------------------|
B|---------------------------------------------------|
G|---------------------------------------------------|
D|---------------------------------------------------|
A|-----5---------------------------------------------|
E|-7-7---7-7-6-5-5-5---------------------------------|

[Riff 1]

( B5  D5  E5 )
( G5  F#5  G5  F#5  G5  F#5 ) 
( D5  E5 )
( B5  D5  E5 )
( G5  F#5  G5  F#5  G5  F#5 ) 
( D5  E5 )

E|---------------------------------------------------|
B|---------------------------------------------------|
G|---------------------------------------------------|
D|---------------------------------------------------|
A|-9-12--12-14-14--17\16-17\16-17\16-12-12-14-14-----|
E|-7-10--10-12-12--15\14-15\14-15\14-10-10-12-12-----|

E|---------------------------------------------------|
B|---------------------------------------------------|
G|---------------------------------------------------|
D|---------------------------------------------------|
A|-9-12--12-14-14--17\16-17\16-17\16-12-12-14-14-----|
E|-7-10--10-12-12--15\14-15\14-15\14-10-10-12-12-----|

[Primeira Parte - Variação]

[Riff]

E|---------------------------------------------------|
B|---------------------------------------------------|
G|---------------------------------------------------|
D|------------5p4-5p4-5p4----------------------------|
A|---5-5-7-7--------------5-5-7-7--------------------|
E|-7-------------------------------------------------|

E|---------------------------------------------------|
B|---------------------------------------------------|
G|---------------------------------------------------|
D|------------5p4-5p4-5p4----------------------------|
A|---5-5-7-7--------------5-5-7-7--------------------|
E|-7-------------------------------------------------|

He was turned to steel
In the great magnetic field
Where he traveled time
For the future of mankind

[Segunda Parte - Passagem]

E5
   Nobody wants him
D5
   He just stares at the world

[Riff 3]

   B5
E|---------------------------------------------------|
B|---------------------------------------------------|
G|---------------------------------------------------|
D|-------------------7-8-9---------------------------|
A|-9-9-5-6-7--7-8-9----------------------------------|
E|-7-7-----------------------------------------------|

   B5
E|---------------------------------------------------|
B|---------------------------------------------------|
G|---------------------------------------------------|
D|-------------------7-8-9---------------------------|
A|-9-9-5-6-7--7-8-9----------------------------------|
E|-7-7-----------------------------------------------|

E5
   Planning his vengeance
D5
   That he will soon unfold

[Riff 3]

   B5
E|---------------------------------------------------|
B|---------------------------------------------------|
G|---------------------------------------------------|
D|-------------------7-8-9---------------------------|
A|-9-9-5-6-7--7-8-9----------------------------------|
E|-7-7-----------------------------------------------|

   B5
E|---------------------------------------------------|
B|---------------------------------------------------|
G|---------------------------------------------------|
D|-------------------7-8-9---------------------------|
A|-9-9-5-6-7--7-8-9----------------------------------|
E|-7-7-----------------------------------------------|

E|---------------------------------------------------|
B|---------------------------------------------------|
G|-6-4-----------------------------------------------|
D|-----6-5-4-2---------------------------------------|
A|-------------0-2h4-4-------------------------------|
E|---------------------------------------------------|

E|---------------------------------------------------|
B|---------------------------------------------------|
G|-6-4-----------------------------------------------|
D|-----6-5-4-2---------------------------------------|
A|-------------0-2h4-4-------------------------------|
E|---------------------------------------------------|

[Solo] Tom de C# menor - Escala Pentatônica Menor

Lick 1

E|---------------------7-----7...--------------------|
B|-----------------8h9---8h9-------------------------|
G|-----4-----4...------------------------------------|
D|-5h6---5h6-----------------------------------------|
A|---------------------------------------------------|
E|---------------------------------------------------|

Lick 2

E|----------------------------9-------9--------------|
B|-------9-------9...---12b14---12b14----------------|
G|-11b13---11b13-------------------------------------|
D|---------------------------------------------------|
A|---------------------------------------------------|
E|---------------------------------------------------|

Licks

E|---------------------------------------------------|
B|-9b----9b----11b12r11-9----------------------------|
G|-9b----9b----11b12r11-9----------------------------|
D|----11----11------------11-9-9h11~\----------------|
A|---------------------------------------------------|
E|---------------------------------------------------|

E|---------------------------------------------------|
B|---------------------------------------------------|
G|-6-4-----------------------------------------------|
D|-----6-5-4-2---------------------------------------|
A|-------------0-2h4-4-------------------------------|
E|---------------------------------------------------|

E|---------------------------------------------------|
B|---------------------------------------------------|
G|-6-4-----------------------------------------------|
D|-----6-5-4-2---------------------------------------|
A|-------------0-2h4-4-------------------------------|
E|---------------------------------------------------|

[Riff 3]

   B5
E|---------------------------------------------------|
B|---------------------------------------------------|
G|---------------------------------------------------|
D|-------------------7-8-9---------------------------|
A|-9-9-5-6-7--7-8-9----------------------------------|
E|-7-7-----------------------------------------------|

   B5
E|---------------------------------------------------|
B|---------------------------------------------------|
G|---------------------------------------------------|
D|-------------------7-8-9---------------------------|
A|-9-9-5-6-7--7-8-9----------------------------------|
E|-7-7-----------------------------------------------|

   B5
E|---------------------------------------------------|
B|---------------------------------------------------|
G|---------------------------------------------------|
D|-------------------7-8-9---------------------------|
A|-9-9-5-6-7--7-8-9----------------------------------|
E|-7-7-----------------------------------------------|

   B5
E|---------------------------------------------------|
B|---------------------------------------------------|
G|---------------------------------------------------|
D|-------------------7-8-9---------------------------|
A|-9-9-5-6-7--7-8-9----------------------------------|
E|-7-7-----------------------------------------------|

[Riff 1]

( B5  D5  E5 )
( G5  F#5  G5  F#5  G5  F#5 ) 
( D5  E5 )

E|---------------------------------------------------|
B|---------------------------------------------------|
G|---------------------------------------------------|
D|---------------------------------------------------|
A|-9-12--12-14-14--17\16-17\16-17\16-12-12-14-14-----|
E|-7-10--10-12-12--15\14-15\14-15\14-10-10-12-12-----|

[Primeira Parte - Variação]

[Riff]

E|---------------------------------------------------|
B|---------------------------------------------------|
G|---------------------------------------------------|
D|------------5p4-5p4-5p4----------------------------|
A|---5-5-7-7--------------5-5-7-7--------------------|
E|-7-------------------------------------------------|

E|---------------------------------------------------|
B|---------------------------------------------------|
G|---------------------------------------------------|
D|------------5p4-5p4-5p4----------------------------|
A|---5-5-7-7--------------5-5-7-7--------------------|
E|-7-------------------------------------------------|

Heavy boots of lead
Fills his victims full of dread
Running as fast as they can
Iron man lives again!

[Riff 2]

E|---------------------------------------------------|
B|---------------------------------------------------|
G|---------------------------------------------------|
D|---------------------------------------------------|
A|-----5---------------------------------------------|
E|-7-7---7-7-6-5-5-5---0-4-5-5-6---------------------|

E|---------------------------------------------------|
B|---------------------------------------------------|
G|---------------------------------------------------|
D|---------------------------------------------------|
A|-----5---------------------------------------------|
E|-7-7---7-7-6-5-5-5---0-4-5-5-6---------------------|

E|---------------------------------------------------|
B|---------------------------------------------------|
G|---------------------------------------------------|
D|---------------------------------------------------|
A|-----5---------------------------------------------|
E|-7-7---7-7-6-5-5-5---------------------------------|

[Riff 4]

   Em     D      C#m    C
E|---------------------------------------------------|
B|---------------------------------------------------|
G|---------------------------------------------------|
D|----------------------4-5-4-5-4--------------------|
A|-7-5-7--5-7-5--7-5-7-------------5-----------------|
E|---------------------------------------------------|

   Em     D      C#m    C
E|---------------------------------------------------|
B|---------------------------------------------------|
G|---------------------------------------------------|
D|----------------------4-5-4-5-4--------------------|
A|-7-5-7--5-7-5--7-5-7-------------5-7-5-7-----------|
E|---------------------------------------------------|

(Variação)

   Em     D      C#m    C
E|---------------------------------------------------|
B|---------------------------------------------------|
G|---------------------------------------------------|
D|----------------------4-5-4-5-4----9-7-9-----------|
A|-7-5-7--5-7-5--7-5-7-------------5-7-5-7-----------|
E|---------------------------------------------------|
Composição de Bill Ward / Geezer Butler / Ozzy Osbourne / Tony Iommi 1.127.748 exibições
    • ½ Tom
    • Am
    • Bbm
    • Bm
    • Cm
    • C#m
    • Dm
    • Ebm
    • Em
    • Fm
    • F#m
    • Gm
    • G#m
  • Adicionar à lista

    0 comentários

    Mostrar mais comentários
    00:00 / 00:00
    outros vídeos desta música
    repetir qualidade Automático
    Outros vídeos desta música
    00:00 / 00:00
    Automático
    Capítulos
    • Início
    • Tocando a música
    • Power chords do Riff 1
    • Tocando Introdução
    • Ensinando Introdução (Efeito inicial)
    • Tocando Primeira Parte
    • Ensinando Riff - Primeira Parte
    • Tocando Riff 2
    • Ensinando Riff 2 - Parte 1
    • Power chords da Segunda parte (Riff 3)
    • Tocando Segunda parte - Riff 3
    • Ensinando Passagem
    • Ensinando Riff 3 (Parte 1)
    • Ensinando Riff 3 (Parte 2 ou Riff 4)
    • Dicas (Solo)
    • Tocando o Solo
    • Escala pentatônica menor em C#m - 01
    • Escala de Blues em C#m - 01
    • Escala pentatônica menor em C#m - 02
    • Escala de Blues em C#m - 02
    • Escala pentatônica menor em C#m - 03
    • Escala de Blues em C#m - 03
    • Escala pentatônica menor em C#m - 04
    • Escala de Blues em C#m - 04
    • Técnicas
    • Licks 1
    • Licks 2
    • Licks
    • Tocando Riff 2 e 4 (Riff final)
    • Ensinando Riff 4 ou Riff final (Parte 1)
    • Ensinando Riff 4 ou Riff final (Parte 2)
    • Ensinando Riff 4 (variação - Parte 2)
    • Encerramento
    OK