Cifra Club

Iron Man

Black Sabbath

Cifra: Principal
exibições 1.056.296
Tom: B
Intro:
Efeito incial:
E|---------------------------------------------------|
B|---------------------------------------------------|
G|---------------------------------------------------|
D|---------------------------------------------------|
A|---------------------------------------------------|
E|-0b2r0---0b2r0---0b2r0-----------------------------|

I am Iron Man

Riff 1: (2x)
B5  D5  E5 ( G5  F#5 ) (3x)  D5 E5

E|---------------------------------------------------|
B|---------------------------------------------------|
G|---------------------------------------------------|   (2x)
D|---------------------------------------------------|
A|-9-12--12-14-14--17\16-17\16-17\16-12-12-14-14-----|
E|-7-10--10-12-12--15\14-15\14-15\14-10-10-12-12-----|

Riff - Primeira Parte:
E|---------------------------------------------------|
B|---------------------------------------------------|
G|---------------------------------------------------|
D|------------5p4-5p4-5p4----------------------------|  (2x)
A|---5-5-7-7--------------5-5-7-7--------------------|
E|-7-------------------------------------------------|

Has he lost his mind?
Can he see or is he blind?

Can he walk at all,
Or if he moves will he fall?

Riff 1: (1x)
B5  D5  E5 ( G5  F#5 ) (3x)  D5 E5

Riff - Primeira Parte - Continuação:
E|---------------------------------------------------|
B|---------------------------------------------------|
G|---------------------------------------------------|
D|------------5p4-5p4-5p4----------------------------| (2x)
A|---5-5-7-7--------------5-5-7-7--------------------|
E|-7-------------------------------------------------|

Is he alive or dead?
Has he thoughts within his head?

Well just pass him there
Why should we even care?

Riff 2:
E|---------------------------------------------------|
B|---------------------------------------------------|
G|---------------------------------------------------|  (2x)
D|---------------------------------------------------|
A|-----5---------------------------------------------|
E|-7-7---7--6-5-5-5---0-4-5-5-6----------------------|

E|---------------------------------------------------|
B|---------------------------------------------------|
G|---------------------------------------------------|
D|---------------------------------------------------|
A|-----5---------------------------------------------|
E|-7-7---7--6-5-5-5----------------------------------|

Riff 1: (2x)
B5  D5  E5 ( G5  F#5 ) (3x)  D5 E5

Primeira Parte - Variação:
E|---------------------------------------------------|
B|---------------------------------------------------|
G|---------------------------------------------------|
D|------------5p4-5p4-5p4----------------------------| (2x)
A|---5-5-7-7--------------5-5-7-7--------------------|
E|-7-------------------------------------------------|

He was turned to steel
In the great magnetic field

Where he traveled time
For the future of mankind

Segunda Parte - Passagem:
E5
   Nobody wants him
D5
   He just stares at the world

Riff 3:
   B5
E|---------------------------------------------------|
B|---------------------------------------------------|
G|---------------------------------------------------|   (2x)
D|--------------------7-8-9--------------------------|
A|-9-9------7--7-8-9---------------------------------|
E|-7-7-7-10------------------------------------------|

E5
   Planning his vengeance
D5
   That he will soon unfold

Riff 3:
   B5
E|---------------------------------------------------|
B|---------------------------------------------------|
G|---------------------------------------------------|   (2x)
D|--------------------7-8-9--------------------------|
A|-9-9------7--7-8-9---------------------------------|
E|-7-7-7-10------------------------------------------|

Riff 1: (2x)
B5  D5  E5 ( G5  F#5 ) (3x)  D5 E5

Primeira Parte - Variação:
E|---------------------------------------------------|
B|---------------------------------------------------|
G|---------------------------------------------------|
D|------------5p4-5p4-5p4----------------------------| (2x)
A|---5-5-7-7--------------5-5-7-7--------------------|
E|-7-------------------------------------------------|

Now the time is here
For iron man to spread fear

Vengeance from the grave
Kills the people he once saved

Segunda Parte:
E5
   Nobody wants him
D5
   They just turn their heads

Riff 3:
   B5
E|---------------------------------------------------|
B|---------------------------------------------------|
G|---------------------------------------------------|   (2x)
D|--------------------7-8-9--------------------------|
A|-9-9------7--7-8-9---------------------------------|
E|-7-7-7-10------------------------------------------|

E5
   Nobody helps him
D5
   Now he has his revenge

Riff 3:
   B5
E|---------------------------------------------------|
B|---------------------------------------------------|
G|---------------------------------------------------|   (2x)
D|--------------------7-8-9--------------------------|
A|-9-9------7--7-8-9---------------------------------|
E|-7-7-7-10------------------------------------------|

E|---------------------------------------------------|
B|---------------------------------------------------|
G|-6-4-----------------------------------------------|   (2x)
D|-----6-5-4-2---------------------------------------|
A|-------------2-2h4-4-------------------------------|
E|---------------------------------------------------|

Solo: Tom de C# menor - Escala Pentatônica Menor

E|--------------------------------------------------------|
B|--------------------------------------------------------|
G|---------------------------------9----------------------|
D|------------------------9-9-9h11---11-------------------|
A|-----7-9-9p7---7-9-9/11---------------------------------|
E|-7h9---------9------------------------------------------|

E|--------------------------------------------------------|
B|--------------------------------------------------------|
G|---------9-9--------------------------------------------|
D|-11p9--------11p9----9h11-11----------------------------|
A|------11----------11------------------------------------|
E|--------------------------------------------------------|

E|-------9------------------------------------------------|
B|-----9---12p9----9--------------------------------------|
G|-11b----------11---9-9----------------------------------|
D|------------------------11p9-9h11-----------------------|
A|--------------------------------------------------------|
E|--------------------------------------------------------|

E|---------9----------------------------------------------|
B|-------9---12p9----9-12p9----9--------------------------|
G|-9-11b----------11--------11----------------------------|
D|--------------------------------------------------------|
A|--------------------------------------------------------|
E|--------------------------------------------------------|

E|-------------9-----9--------12b-12b-12b-12-12p9----9------------9-----------9----------|
B|-12p9------9---12b---12-9-9---------------------12---12-12b-12b---12p9----9---12p9-----|
G|------11p9-------------------------------------------------------------11----------11--|
D|---------------------------------------------------------------------------------------|
A|---------------------------------------------------------------------------------------|
E|---------------------------------------------------------------------------------------|

E|--------------------------------------------------------|
B|--------------------------------------------------------|
G|-11p9----9-9--------------------------------------------|
D|------11-----11p9----9h11-------------------------------|
A|------------------11------------------------------------|
E|--------------------------------------------------------|

E|--------------------------------------------------------|
B|--------------------------------------------------------|
G|-9-9--------------9-------------------------------------|
D|-----11p9----9h11---9-----------------------------------|
A|----------11--------------------------------------------|
E|--------------------------------------------------------|

E|--------|
B|--------|
G|--------|
D|-9h11---| (12x)
A|--------|
E|--------|

---------------------------%--------------------------

E|---------------------------------------------------|
B|---------------------------------------------------|
G|-6-4-----------------------------------------------|   (2x)
D|-----6-5-4-2---------------------------------------|
A|-------------2-2h4-4-------------------------------|
E|---------------------------------------------------|

Riff 3:
   B5
E|---------------------------------------------------|
B|---------------------------------------------------|
G|---------------------------------------------------|   (4x)
D|--------------------7-8-9--------------------------|
A|-9-9------7--7-8-9---------------------------------|
E|-7-7-7-10------------------------------------------|

Riff 1: (2x)
B5  D5  E5 ( G5  F#5 ) (3x)  D5 E5

Primeira Parte - Variação:
E|---------------------------------------------------|
B|---------------------------------------------------|
G|---------------------------------------------------|
D|------------5p4-5p4-5p4----------------------------| (2x)
A|---5-5-7-7--------------5-5-7-7--------------------|
E|-7-------------------------------------------------|

Heavy boots of lead
Fills his victims full of dread

Running as fast as they can
Iron man lives again!

Riff 2:
E|---------------------------------------------------|
B|---------------------------------------------------|
G|---------------------------------------------------|  (2x)
D|---------------------------------------------------|
A|-----5---------------------------------------------|
E|-7-7---7--6-5-5-5---0-4-5-5-6----------------------|

E|---------------------------------------------------|
B|---------------------------------------------------|
G|---------------------------------------------------|
D|---------------------------------------------------|
A|-----5---------------------------------------------|
E|-7-7---7--6-5-5-5----------------------------------|

Efeito incial:
E|---------------------------------------------------|
B|---------------------------------------------------|
G|---------------------------------------------------|
D|---------------------------------------------------|
A|---------------------------------------------------|
E|-0b2r0---0b2r0-------------------------------------|

Riff 4:
E|---------------------------------------------------|
B|---------------------------------------------------|
G|---------------------------------------------------|
D|-------------------4-5-4-5-4h5p4-------------------| (2x)
A|-7p5-7-5h7-5-7p5-7---------------5-----------------|
E|---------------------------------------------------|

Solo 2: Tom de E menor - Escala Pentatônica Menor
E|--------------------------------------------------------|
B|--------------------------------------------------------|
G|-------------7-7h9-9b-9b-9b-7---7h9---------------------|
D|-----5---7/9------------------9-------------------------|
A|-5h7---7------------------------------------------------|
E|--------------------------------------------------------|

E|-----------10h12-12b-12b-12b-12p10-12p10----10-------------------------------------------------------|
B|-8---10/12-------------------------------12----12/10p8---10p8----------------------------------------|
G|---9---------------------------------------------------9------9p7----------------------------7---7h9-|
D|------------------------------------------------------------------/7p5-7p5---5h7-----5-7-7/9---9-----|
A|---------------------------------------------------------------------------7-----5h7-----------------|
E|-----------------------------------------------------------------------------------------------------|

E|--------------------------------------------------------|
B|--------------------------------------------------------|
G|-9b-9b-9b-9b-9b(9)-9p7---7------------------------------|
D|-----------------------9---8/7p5-7-5-7-7b-7b-7b(7)-5----|
A|-----------------------------------------------------7--|
E|--------------------------------------------------------|

Riff 4:
E|---------------------------------------------------|
B|---------------------------------------------------|
G|---------------------------------------------------|
D|-------------------4-5-4-5-4h5p4-------------------| (3x)
A|-7p5-7-5h7-5-7p5-7---------------5-----------------|
E|---------------------------------------------------|

E|---------------------------------------------------|
B|---------------------------------------------------|
G|---------------------------------------------------|
D|---------------------------------------------------|
A|-7-5-7---------------------------------------------|
E|---------------------------------------------------|

0 comentários

    mostrar mais comentários

    Conseguiu tocar?

    359tocaram1ainda não

    Grave um vídeo tocando Iron Man e mande pra gente!

    00:00 / 00:00
    outros vídeos desta música
    repetirqualidadeautomática
    Outro vídeos desta música
      00:00 / 00:00
      automática
      Capítulos
      • Início
      • Tocando a música
      • Power chords do Riff 1
      • Tocando Introdução
      • Ensinando Introdução (Efeito inicial)
      • Tocando Primeira Parte
      • Ensinando Riff - Primeira Parte
      • Tocando Riff 2
      • Ensinando Riff 2 - Parte 1
      • Power chords da Segunda parte (Riff 3)
      • Tocando Segunda parte - Riff 3
      • Ensinando Passagem
      • Ensinando Riff 3 (Parte 1)
      • Ensinando Riff 3 (Parte 2 ou Riff 4)
      • Dicas (Solo)
      • Tocando o Solo
      • Escala pentatônica menor em C#m - 01
      • Escala de Blues em C#m - 01
      • Escala pentatônica menor em C#m - 02
      • Escala de Blues em C#m - 02
      • Escala pentatônica menor em C#m - 03
      • Escala de Blues em C#m - 03
      • Escala pentatônica menor em C#m - 04
      • Escala de Blues em C#m - 04
      • Técnicas
      • Licks 1
      • Licks 2
      • Licks
      • Tocando Riff 2 e 4 (Riff final)
      • Ensinando Riff 4 ou Riff final (Parte 1)
      • Ensinando Riff 4 ou Riff final (Parte 2)
      • Ensinando Riff 4 (variação - Parte 2)
      • Encerramento
      OK