Cifra Club

Im Alive

Blind Guardian

Tab de baixo: Principal
Selo Cifra Club: esta cifra foi revisada para atender aos critérios oficiais da nossa Equipe de Qualidade.
Tune Down

F#||---------------------------|---------------------------|
C#||---------------------------|---------------------------|
G#||---------------------------|---------------------------|
D#||--2----2--2--2--2--2-2-2-2-|--3----3--3--3--3--3-3-3-3-|
                                                                          
----------------------|----------------------|---------------------------|
----------------------|----------------------|---------------------------|
----------------------|----------------------|---------------------------|
--0h-2------0h-2------|--0h-2------0h-2------|--2----2--2--2--2--2-2-2-2-|
                                                                      
---------------------------|--------------------|--------------------|
---------------------------|--4-----------------|--------------------|
---------------------------|-----------4--------|-----------3--------|
--3----3--3--3--3--3-3-3-3-|--------------------|--5-----------------|
                                                                     
----------------------------------|----------------------------------|
----------------------------------|----------------------------------|
----------------------------------|----------------------------------|
--2-2-2-2-2-2-2-2-2-2-2-2-2-2-2-2-|--2-2-2-2-2-2-2-2-2-2-2-2-2-2-2-2-
                                                                
----------------------------------|----------------------------------|
----------------------------------|----------------------------------|
----------------------------------|----------------------------------|
--2-2-2-2-2-2-2-2-2-2-2-2-2-2-2-2-|--2-2-2-2-2-2-2-2-2-2-2-2-2-2-2-2-|
                                                              
--------------------|--------------------|-------------------|
--4-----------------|--------------------|-------------------|
-----------4--------|-----------3--------|-------------------|
--------------------|--5-----------------|--2----------------|
                                                                           
------------------|------------------|------------------|------------------|
------------------|------------------|------------------|------------------|
------------------|------------------|------------------|------------------|
------------------|------------------|------------------|------------------|
                                                                            
------------------|------------------|------------------|------------------|
------------------|------------------|------------------|------------------|
------------------|------------------|------------------|------------------|
------------------|------------------|------------------|------------------|
                                                                
------------------|----------------------|----------------------|
------------------|----------------------|----------------------|
------------------|----------------------|----------------------|
------------------|--0h-2------0h-2------|--0h-2------0h-2------|
                                                                     
----------------------------------|----------------------------------|
----------------------------------|----------------------------------|
--3-3-3-3-3-3-3-3-3-3-3-3-3-3-3-3-|--3-3-3-3-3-3-3-3-3-3-3-3-3-3-3-3-|
----------------------------------|----------------------------------|
                                                                     
----------------------------------|----------------------------------|
----------------------------------|----------------------------------|
----------------------------------|----------------------------------|
--2-2-2-2-2-2-2-2-2-2-2-2-2-2-2-2-|--2-2-2-2-2-2-2-2-2-2-2-2-2-2-2-2-|
                                                          
----------------------------------|----------------------|
----------------------------------|----------------------|
----------------------------------|--7----6--------------|
--2-2-2-2-2-2-2-2-2-2-2-2-2-2-2-2-|------------7----5----|
                                                                      
----------------------------------|----------------------------------|
----------------------------------|----------------------------------|
----------------------------------|----------------------------------|
--2-2-2-2-2-2-2-2-2-2-2-2-2-2-2-2-|--2-2-2-2-2-2-2-2-2-2-2-2-2-2-2-2-
                                                                 
----------------------------------|----------------------------------|
----------------------------------|----------------------------------|
----------------------------------|--9-9-9-9-8-8-8-8-----------------|
--2-2-2-2-4-4-4-4-5-5-5-5-7-7-7-7-|------------------9-9-9-9-5-5-5-5-|
                                                                    
--------------------------------|----------------------------------|
--------------------------------|----------------------------------|
--2/-3--3-3-3-3-3-3-3-3-3-3-3-3-|--3-3-3-3-3-3-3-3-3-3-3-3-3-3-3-3-|
--------------------------------|----------------------------------|
                                                                    
--------------------------------|----------------------------------|
--------------------------------|----------------------------------|
--3/-2--2-2-2-2-2-2-2-2-2-2-2-2-|--2-2-2-2-2-2-2-2-2-2-2-2-2-2-2-2-|
--------------------------------|----------------------------------|
                                                                  
--------------------------------|----------------------------------|
--------------------------------|----------------------------------|
--2/-3--3-3-3-3-3-3-3-3-3-3-3-3-|--3-3-3-3-3-3-3-3-3-3-3-3-3-3-3-3-|
--------------------------------|----------------------------------
                                                                           
--------------------|--------------------|--------------------------------|
--4-----------------|--------------------|--------------------------------|
-----------4--------|-----------2--------|--2/-3--3-3-3-3-3-3-3-3-3-3-3-3-|
--------------------|--5-----------------|--------------------------------|
                                                                   
----------------------------------|--------------------------------|
----------------------------------|--------------------------------|
--3-3-3-3-3-3-3-3-3-3-3-3-3-3-3-3-|--3/-2--2-2-2-2-2-2-2-2-2-2-2-2-|
----------------------------------|--------------------------------|
                                                                   
----------------------------------|--------------------------------|
----------------------------------|--------------------------------|
--2-2-2-2-2-2-2-2-2-2-2-2-2-2-2-2-|--2/-3--3-3-3-3-3-3-3-3-3-3-3-3-|
----------------------------------|--------------------------------|
                                                                            
----------------------------------|--------------------|--------------------|
----------------------------------|--4-----------------|--------------------|
--3-3-3-3-3-3-3-3-3-3-3-3-3-3-3-3-|-----------4--------|-----------2--------|
----------------------------------|--------------------|--5-----------------|
                                                              
--------------------|--------------------|--------------------|
--------------------|--------------------|--------------------|
--------------------|--------------------|--------------------|
--2------------2----|--2------------2----|--2------------2----|
                                                               
--------------------|--------------------|--------------------|
--------------------|--------------------|--------------------|
--------------------|--------------------|--3------------3----|
--5--------0--------|--2------------2----|--------------------|
                                                               
--------------------|---------------------|---------------------|
--------------------|---------------------|---------------------|
--4------------4----|--4------------5h-4--|--5--------5----5----|
--------------------|---------------------|---------------------|
                                                                      
---------------------|------------------------|----------------------|
---------------------|------------------------|----------------------|
--2--------2----2----|--4--4----4--4----4--4--|--4----4----4----4----|
---------------------|------------------------|----------------------|
                                                     
---------------------------|---------------------------|
---------------------------|---------------------------|
---------------------------|--5----5--5--5-5-5-5-5--5--|
--2----2--2--2-2-2-2-2--2--|---------------------------|
                                                       
---------------------------|--------------------------|
---------------------------|--------------------------|
--4----4--4--4-4-4-4-4--4--|--------------------------|
---------------------------|--5--5--5--5--0--0--0--0--|
                                                        
---------------------------|---------------------------|
---------------------------|---------------------------|
---------------------------|--3----3--3--3-3-3-3-3--3--|
--2----2--2--2-2-2-2-2--2--|---------------------------|
                                                     
---------------------------|--------------------------|
---------------------------|--------------------------|
--4----4--4--4-4-4-4-4--4--|--4--4--4--4--4--4--4--4--|
---------------------------|--------------------------|
                                                                     
----------------------------------|----------------------------------|
----------------------------------|----------------------------------|
--5-5-5-5-5-5-5-5-5-5-5-5-5-5-5-5-|--2-2-2-2-2-2-2-2-2-2-2-2-2-2-2-2-|
----------------------------------|----------------------------------|
                                                                      
----------------------------------|----------------------------------|
----------------------------------|----------------------------------|
--4-4-4-4-4-4-4-4-4-4-4-4-4-4-4-4-|--4-4-4-4-4-4-4-4-4-4-4-4-4-4-4-4-|
----------------------------------|----------------------------------|
                                                                      
----------------------------------|----------------------------------|
----------------------------------|----------------------------------|
--5-5-5-5-5-5-5-5-5-5-5-5-5-5-5-5-|--2-2-2-2-2-2-2-2-2-2-2-2-2-2-2-2-|
----------------------------------|----------------------------------|
                                                            
----------------------------------|--------------------------|
----------------------------------|--------------------------|
--4-4-4-4-4-4-4-4-4-4-4-4-4-4-4-4-|--4--4--4--4--4--4--2--0--|
----------------------------------|--------------------------|
                                                                      
----------------------------------|----------------------------------|
----------------------------------|----------------------------------|
----------------------------------|----------------------------------|
--2-2-2-2-2-2-2-2-2-2-2-2-2-2-2-2-|--2-2-2-2-2-2-2-2-2-2-2-2-2-2-2-2-|
                                                                      
----------------------------------|----------------------------------|
----------------------------------|----------------------------------|
----------------------------------|----------------------------------|
--2-2-2-2-2-2-2-2-2-2-2-2-2-2-2-2-|--2-2-2-2-2-2-2-2-2-2-2-2-2-2-2-2-|
                                                                            
--------------------|--------------------|----------------------------------|
--4-----------------|--------------------|----------------------------------|
-----------4--------|-----------2--------|--4-4-4-4-4-4-4-4-4-4-4-4-4-4-4-4-|
--------------------|--5-----------------|----------------------------------|
                                                                     
----------------------------------|----------------------------------|
----------------------------------|----------------------------------|
--4-4-4-4-4-4-4-4-4-4-4-4-4-4-4-4-|--4-4-4-4-4-4-4-4-4-4-4-4-4-4-4-4-|
----------------------------------|----------------------------------|
                                                                     
----------------------------------|----------------------------------|
----------------------------------|----------------------------------|
----------------------------------|--4-4-4-4-4-4-4-4-4-4-4-4-4-4-4-4-|
--3-3-3-3-3-3-3-3-3-3-3-3-3-3-3-3-|----------------------------------|
                                                                      
----------------------------------|----------------------------------|
----------------------------------|----------------------------------|
--4-4-4-4-4-4-4-4-4-4-4-4-4-4-4-4-|--4-4-4-4-4-4-4-4-4-4-4-4-4-4-4-4-|
----------------------------------|----------------------------------|
                                                                    
----------------------------------|----------------------------------|
----------------------------------|----------------------------------|
--5-5-5-5-5-5-5-5-7-7-7-7-7-7-7-7-|----------------------------------|
----------------------------------|--2-2-2-2-2-2-2-2-2-2-2-2-2-2-2-2-|
                                                                      
----------------------------------|----------------------------------|
----------------------------------|----------------------------------|
--5-5-5-5-5-5-5-5-5-5-5-5-5-5-5-5-|----------------------------------|
----------------------------------|--4-4-4-4-4-4-4-4-4-4-4-4-4-4-4-4-|
                                                                     
----------------------------------|----------------------------------|
----------------------------------|----------------------------------|
--4-4-4-4-4-4-4-4-4-4-4-4-4-4-4-4-|----------------------------------|
----------------------------------|--2-2-2-2-2-2-2-2-2-2-2-2-2-2-2-2-|
                                                                      
----------------------------------|----------------------------------|
----------------------------------|----------------------------------|
--5-5-5-5-5-5-5-5-5-5-5-5-5-5-5-5-|----------------------------------|
----------------------------------|--4-4-4-4-4-4-4-4-4-4-4-4-4-4-4-4-|
                                                                    
----------------------------------|----------------------------------|
----------------------------------|----------------------------------|
--4-4-4-4-4-4-4-4-4-4-4-4-4-4-4-4-|----------------------------------|
----------------------------------|--2-2-2-2-2-2-2-2-2-2-2-2-2-2-2-2-|
                                                              
----------------------------------|--------------------------|
----------------------------------|--------------------------|
----------------------------------|--------------------------|
--2-2-2-2-2-2-2-2-2-2-2-2-2-2-2-2-|--5--5--5--5--5--5--5--5--|
                                                              
--------------------------|----------------------------------|
--------------------------|----------------------------------|
--------------------------|----------------------------------|
--0--0--0--0--1--1--1--1--|--2-2-2-2-2-2-2-2-2-2-2-2-2-2-2-2-|
                                                      
----------------------------|--------------------------|
----------------------------|--------------------------|
----------------------------|--------------------------|
--2-2-2-2-2-2-2-2-2----4----|--5--5--5--5--5--5--5--5--|
                                                      
--------------------------|--------------------------|
--------------------------|--------------------------|
--7--7--7--7--7--7--7--7--|--5--5--5--5--5--5--5--5--|
--------------------------|--------------------------|
                                                      
--------------------------|--------------------------|
--------------------------|--------------------------|
--5--5--5--5--5--5--5--5--|--5--5--5--5--5--5--5--5--|
--------------------------|--------------------------|
                                                        
--------------------------|------------------------------|
--------------------------|------------------------------|
--5--5--5--5--5--5--5--5--|--4--4--4-4-4-4-5--5--5-5-5-5-|
--------------------------|------------------------------|
                                                            
------------------------------|------------------------------|
------------------------------|------------------------------|
--4--4--4-4-4-4-3--3--3-3-3-3-|--4--4--4-4-4-4-5--5--5-5-5-5-|
------------------------------|------------------------------|
                                                          
------------------------------|--------------------------|
------------------------------|--------------------------|
--4--4--4-4-4-4-3--3--3-3-3-3-|--------------------------|
------------------------------|--5--5--5--5--5--5--5--5--|
                                                      
--------------------------|--------------------------|
--------------------------|--------------------------|
--------------------------|--------------------------|
--0--0--0--0--0--0--0--0--|--2--2--2--2--2--2--2--2--|
                                                     
--------------------------|--------------------------|
--------------------------|--------------------------|
--------------------------|--------------------------|
--2--2--2--2--2--2--2--2--|--5--5--5--5--5--5--5--5--|
                                                                    
--------------------------|--------------------|--------------------|
--------------------------|--------------------|--------------------|
--------------------------|--------------------|--------------------|
--0--0--0--0--0--0--0--0--|--2------------2----|--2------------2----|
                                                               
--------------------|--------------------|--------------------|
--------------------|--------------------|--------------------|
--------------------|--------------------|--------------------|
--2------------2----|--5--------0--------|--2------------2----|
                                                               
--------------------|--------------------|---------------------|
--------------------|--------------------|---------------------|
--3------------3----|--4------------4----|--4------------5h-4--|
--------------------|--------------------|---------------------|
                                                                     
---------------------|---------------------|------------------------|
---------------------|---------------------|------------------------|
--5--------5----5----|--2--------2----2----|--4--4----4--4----4--4--|
---------------------|---------------------|------------------------|
                                                                              
----------------------|---------------------------|---------------------------|
----------------------|---------------------------|---------------------------|
--4----4----4----4----|---------------------------|--5----5--5--5-5-5-5-5--5--|
----------------------|--2----2--2--2-2-2-2-2--2--|---------------------------|
                                                      
---------------------------|--------------------------|
---------------------------|--------------------------|
--4----4--4--4-4-4-4-4--4--|--------------------------|
---------------------------|--5--5--5--5--0--0--0--0--|
                                                        
---------------------------|---------------------------|
---------------------------|---------------------------|
---------------------------|--3----3--3--3-3-3-3-3--3--|
--2----2--2--2-2-2-2-2--2--|---------------------------|
                                                       
---------------------------|--------------------------|
---------------------------|--------------------------|
--4----4--4--4-4-4-4-4--4--|--4--4--4--4--4--4--4--4--|
---------------------------|--------------------------|
                                                                      
----------------------------------|----------------------------------|
----------------------------------|----------------------------------|
--5-5-5-5-5-5-5-5-5-5-5-5-5-5-5-5-|--2-2-2-2-2-2-2-2-2-2-2-2-2-2-2-2-|
----------------------------------|----------------------------------|
                                                                     
----------------------------------|----------------------------------|
----------------------------------|----------------------------------|
--4-4-4-4-4-4-4-4-4-4-4-4-4-4-4-4-|--4-4-4-4-4-4-4-4-4-4-4-4-4-4-4-4-|
----------------------------------|----------------------------------|
                                                                     
----------------------------------|----------------------------------|
----------------------------------|----------------------------------|
--5-5-5-5-5-5-5-5-5-5-5-5-5-5-5-5-|--2-2-2-2-2-2-2-2-2-2-2-2-2-2-2-2-|
----------------------------------|----------------------------------|
                                                              
----------------------------------|--------------------------|
----------------------------------|--------------------------|
--4-4-4-4-4-4-4-4-4-4-4-4-4-4-4-4-|--4--4--4--4--4--4--2--0--|
----------------------------------|--------------------------|
                                                            
----------------------------------|------------------------|
----------------------------------|------------------------|
----------------------------------|----------2--3---4---7--|
--2-2-2-2-2-2-2-2-2-2-2-2-2-2-2-2-|--2---5-----------------|
                                                           
----------------------------------|------------------------|
----------------------------------|------------------------|
----------------------------------|----------2--3---4---7--|
--2-2-2-2-2-2-2-2-2-2-2-2-2-2-2-2-|--2---5-----------------|
                                                                      
----------------------------------|----------------------------------|
----------------------------------|----------------------------------|
--2-2-2-2-2-2-2-2-2-2-2-2-2-2-2-2-|--2-2-2-2-2-2-2-2-2-2-2-2-2-2-2-2-|
----------------------------------|----------------------------------|
                                                                     
----------------------------------|----------------------------------|
----------------------------------|----------------------------------|
----------------------------------|----------------------------------|
--2-2-2-2-2-2-2-2-2-2-2-2-2-2-2-2-|--2-2-2-2-2-2-2-2-2-2-2-2-2-2-2-2-
                                                                      
----------------------------------|----------------------------------|
----------------------------------|----------------------------------|
--4-4-4-4-4-4-4-4-4-4-4-4-4-4-4-4-|--4-4-4-4-4-4-4-4-4-4-4-4-4-4-4-4-|
----------------------------------|----------------------------------|
                                                                     
----------------------------------|----------------------------------|
----------------------------------|----------------------------------|
--2-2-2-2-2-2-2-2-2-2-2-2-2-2-2-2-|--2-2-2-2-2-2-2-2-2-2-2-2-2-2-2-2-|
----------------------------------|----------------------------------|
                                                            
----------------------------------|------------------------|
----------------------------------|------------------------|
----------------------------------|----------2--3---4---7--|
--2-2-2-2-2-2-2-2-2-2-2-2-2-2-2-2-|--2---5-----------------|
                                                           
----------------------------------|------------------------|
----------------------------------|------------------------|
----------------------------------|----------2--3---4---7--|
--2-2-2-2-2-2-2-2-2-2-2-2-2-2-2-2-|--2---5-----------------|
                                                                      
----------------------------------|----------------------------------|
----------------------------------|----------------------------------|
----------------------------------|----------------------------------|
--2-2-2-2-2-2-2-2-2-2-2-2-2-2-2-2-|--2-2-2-2-2-2-2-2-2-2-2-2-2-2-2-2-|
                                                                      
----------------------------------|----------------------------------|
----------------------------------|----------------------------------|
--5-5-5-5-5-5-5-5-5-5-5-5-5-5-5-5-|--5-5-5-5-5-5-5-5-5-5-5-5-5-5-5-5-|
----------------------------------|----------------------------------|
                                                                    
----------------------------------|----------------------------------|
----------------------------------|----------------------------------|
--6-6-6-6-6-6-6-6-6-6-6-6-6-6-6-6-|--6-6-6-6-6-6-6-6-6-6-6-6-6-6-6-6-|
----------------------------------|----------------------------------|
                                                                      
----------------------------------|----------------------------------|
----------------------------------|----------------------------------|
--7-7-7-7-7-7-7-7-7-7-7-7-7-7-7-7-|--7-7-7-7-7-7-7-7-7-7-7-7-7-7-7-7-|
----------------------------------|----------------------------------|
                                                                      
----------------------------------|----------------------------------|
----------------------------------|----------------------------------|
----------------------------------|----------------------------------|
--2-2-2-2-2-2-2-2-2-2-2-2-2-2-2-2-|--2-2-2-2-2-2-2-2-2-2-2-2-2-2-2-2-|
                                                                      
----------------------------------|----------------------------------|
----------------------------------|----------------------------------|
--5-5-5-5-5-5-5-5-5-5-5-5-5-5-5-5-|--5-5-5-5-5-5-5-5-5-5-5-5-5-5-5-5-|
----------------------------------|----------------------------------|
                                                                     
----------------------------------|----------------------------------|
----------------------------------|----------------------------------|
--2-2-2-2-2-2-2-2-2-2-2-2-2-2-2-2-|--2-2-2-2-2-2-2-2-2-2-2-2-2-2-2-2-|
----------------------------------|----------------------------------|
                                                      
--------------------------|--------------------------|
--------------------------|--------------------------|
--4--4--4--4--2--2--2--2--|--------------------------|
--------------------------|--5--5--5--5--4--4--4--4--|
                                                                     
----------------------------------|----------------------------------|
----------------------------------|----------------------------------|
----------------------------------|--7-7-7-7-7-7-7-7-7-7-7-7-7-7-7-7-|
--2-2-2-2-2-2-2-2-2-2-2-2-2-2-2-2-|----------------------------------|
                                                                     
----------------------------------|----------------------------------|
----------------------------------|----------------------------------|
--5-5-5-5-5-5-5-5-5-5-5-5-5-5-5-5-|--4-4-4-4-4-4-4-4-4-4-4-4-4-4-4-4-|
----------------------------------|----------------------------------|
                                                                      
----------------------------------|----------------------------------|
----------------------------------|----------------------------------|
----------------------------------|--7-7-7-7-7-7-7-7-7-7-7-7-7-7-7-7-|
--2-2-2-2-2-2-2-2-2-2-2-2-2-2-2-2-|----------------------------------|
                                                                      
----------------------------------|----------------------------------|
----------------------------------|----------------------------------|
--5-5-5-5-5-5-5-5-5-5-5-5-5-5-5-5-|--4-4-4-4-4-4-4-4-4-4-4-4-4-4-4-4-|
----------------------------------|----------------------------------|
                                                                      
----------------------------------|----------------------------------|
----------------------------------|----------------------------------|
----------------------------------|--7-7-7-7-7-7-7-7-7-7-7-7-7-7-7-7-|
--2-2-2-2-2-2-2-2-2-2-2-2-2-2-2-2-|----------------------------------|
                                                                     
----------------------------------|----------------------------------|
----------------------------------|----------------------------------|
----------------------------------|--7-7-7-7-7-7-7-7-7-7-7-7-7-7-7-7-|
--2-2-2-2-2-2-2-2-2-2-2-2-2-2-2-2-|----------------------------------|
                                                     
--------------------------|--------------------------|
--------------------------|--------------------------|
--5--5--5--5--2--2--2--2--|--4--4--4--4--4--4--4--4--|
--------------------------|--------------------------|
                                                                     
----------------------------------|----------------------------------|
----------------------------------|----------------------------------|
----------------------------------|--7-7-7-7-7-7-7-7-7-7-7-7-7-7-7-7-|
--2-2-2-2-2-2-2-2-2-2-2-2-2-2-2-2-|----------------------------------|
                                                                     
----------------------------------|----------------------------------|
----------------------------------|----------------------------------|
----------------------------------|--7-7-7-7-7-7-7-7-7-7-7-7-7-7-7-7-|
--2-2-2-2-2-2-2-2-2-2-2-2-2-2-2-2-|----------------------------------|
                                                      
--------------------------|--------------------------|
--------------------------|--------------------------|
--5--5--5--5--2--2--2--2--|--4--4--2--2--------------|
--------------------------|--------------5--5--4--4--|
                                                        
---------------------------|----------------------------|
---------------------------|----------------------------|
---------------------------|--7-7-7-7-7----2-2-2-2-2----|
--2-2-2-2-2-2-2-2-2--------|----------------------------|
                                                         
---------------------------|----------------------------|
---------------------------|----------------------------|
---------------------------|--5-5-5-5-5-----------------|
--2-2-2-2-2-2-2-2-2--------|---------------5-5-5-5-5----|
                                                       
---------------------------|----------------------------|
---------------------------|----------------------------|
---------------------------|--7-7-7-7-7----2-2-2-2-2----|
--2-2-2-2-2-2-2-2-2--------|----------------------------|
                                                                              
---------------------------|----------------------------|--------------------|
---------------------------|----------------------------|--------------------|
---------------------------|--5-5-5-5-5-----------------|--------------------|
--2-2-2-2-2-2-2-2-2--------|---------------5-5-5-5-5----|--2------------2----|
                                                             
--------------------|--------------------|--------------------|
--------------------|--------------------|--------------------|
--------------------|--------------------|--------------------|
--2------------2----|--2------------2----|--5--------0--------|
                                                               
--------------------|--------------------|--------------------|
--------------------|--------------------|--------------------|
--------------------|--3------------3----|--4------------4----|
--2------------2----|--------------------|--------------------|
                                                                  
---------------------|---------------------|---------------------|
---------------------|---------------------|---------------------|
--4------------5h-4--|--5--------5----5----|--2--------2----2----|
---------------------|---------------------|---------------------|
                                                                           
------------------------|----------------------|---------------------------|
------------------------|----------------------|---------------------------|
--4--4----4--4----4--4--|--4----4----4----4----|---------------------------|
------------------------|----------------------|--2----2--2--2-2-2-2-2--2--|
                                                       
---------------------------|---------------------------|
---------------------------|---------------------------|
--5----5--5--5-5-5-5-5--5--|--4----4--4--4-4-4-4-4--4--|
---------------------------|---------------------------|
                                                       
--------------------------|---------------------------|
--------------------------|---------------------------|
--------------------------|---------------------------|
--5--5--5--5--0--0--0--0--|--2----2--2--2-2-2-2-2--2--|
                                                        
---------------------------|---------------------------|
---------------------------|---------------------------|
--3----3--3--3-3-3-3-3--3--|--4----4--4--4-4-4-4-4--4--|
---------------------------|---------------------------|
                                                             
--------------------------|----------------------------------|
--------------------------|----------------------------------|
--4--4--4--4--4--4--4--4--|--5-5-5-5-5-5-5-5-5-5-5-5-5-5-5-5-|
--------------------------|----------------------------------|
                                                                    
----------------------------------|----------------------------------|
----------------------------------|----------------------------------|
--2-2-2-2-2-2-2-2-2-2-2-2-2-2-2-2-|--4-4-4-4-4-4-4-4-4-4-4-4-4-4-4-4-|
----------------------------------|----------------------------------|
                                                                
----------------------------------|----------------------------------|
----------------------------------|----------------------------------|
--4-4-4-4-4-4-4-4-4-4-4-4-4-4-4-4-|--5-5-5-5-5-5-5-5-5-5-5-5-5-5-5-5-|
----------------------------------|----------------------------------|
                                                                      
----------------------------------|----------------------------------|
----------------------------------|----------------------------------|
--2-2-2-2-2-2-2-2-2-2-2-2-2-2-2-2-|--4-4-4-4-4-4-4-4-4-4-4-4-4-4-4-4-|
----------------------------------|----------------------------------|
Outros vídeos desta música
    200 exibições

    Afinação da cifra

    Afinador online

    0 comentários

    Ver todos os comentários

    Entre para o Cifra Club PRO

    Tenha acesso a benefícios exclusivos no App e no Site

    • Chega de anúncios

    • Badges exclusivas

    • Mais recursos no app do Afinador

    • Atendimento Prioritário

    • Aumente seu limite de lista

    • Ajude a produzir mais conteúdo

    Cifra Club Pro

    Aproveite o Cifra Club com benefícios exclusivos e sem anúncios
    Cifra Club Pro
    Aproveite o Cifra Club com benefícios exclusivos e sem anúncios
    Ops (: Contenido disponible sólo en portugués.
    OK