Cifra Club

After Midnight

blink-182

Cifra: Acustica (violão e guitarra)
Tom: Bb (forma dos acordes no tom de G) Capotraste na 3ª casa
Intro:
E|-3---3-3----3---3-3-----------------------------------|
B|-3---3-3----3---3-3-----------------------------------|
G|-0---0-0----0---0-0-----------------------------------|
D|-0---0-0----0---0-0-----------------------------------|
A|-2---2-2----2---2-2-----------------------------------|
E|-3---3-3----3---3-3-----------------------------------|

E|----3-3-3-3-3-3-3-3-3-3-------------------------------|
B|----3-3-3-3-1-1-0-1-1-1-------------------------------|
G|----2-2-2-2-2-2-2-2-2-2-------------------------------|  (4x)
D|------------------------------------------------------|
A|------------------------------------------------------|
E|------------------------------------------------------|


G               G5(7M)         G
I can't get my feet up off the edge,
      G5(7M)             C9
I kinda like the little rush you get,
               Em             D
When you're standing close to death,
                D4   D
Well you're driving me crazy.

G          G5(7M)             G
Hold on as we crash into the earth
  G5(7M)                       C9               Em         D
A bit of pain will help you suffer when you're hurt, for real
                D4   D
When you're driving me crazy

Em                                   C9
by your lips, the word's a robbery,

Do you grin inside?
                G
You're killing me!
              G5(7M)            G
All along we talked of forever,
                  G5(7M)
I kinda think that we won't get better,
         Em                                         C9
It's the longest start, the end is not to far away,
              D
Did you know?
                G
I'm here to stay.

G             G5(7M)               G
We'll stagger home after midnight,
          G5(7M)                 C9
Sleep arm in arm the stairwell,
                Em               D
We'll fall apart on the weekend,
               D4     D
These nights go on and on and on!
E|----3-3-3-3-3-3-3-3-3-3-------------------------------|
B|----3-3-3-3-1-1-0-1-1-1-------------------------------|
G|----2-2-2-2-2-2-2-2-2-2-------------------------------| (4x)
D|------------------------------------------------------|
A|------------------------------------------------------|
E|------------------------------------------------------|


G       G5(7M)                    G
I can't get your voice out of my head,
   G5(7M)                  C9
All I can hear are many echoes of,
             Em       D
The darkest word you said,
                     D4    D
Well you're driving me crazy.

G        G5(7M)                  G
I can't find the best in all of this,
  G5(7M)                C9
But I'm always looking out for you,
            Em           D
Cause you're the one I miss,
                  D4    D
You were driving me crazy.

by your lips, the word's a robbery,

Do you grin inside?
                G
You're killing me!
              G5(7M)            G
All along we talked of forever,
                  G5(7M)
I kinda think that we won't get better,
         Em                                         C9
It's the longest start, the end is not to far away,
              D
Did you know?
                G
I'm here to stay.

G             G5(7M)               G
We'll stagger home after midnight,
          G5(7M)                 C9
Sleep arm in arm the stairwell,
                Em               D
We'll fall apart on the weekend,
               D4     D
These nights go on and on and on!

G             G5(7M)               G
We'll stagger home after midnight,
          G5(7M)                 C9
Sleep arm in arm the stairwell,
                Em               D
We'll fall apart on the weekend,
               D4     D
These nights go on and on and on!
E|-3-3-3-3-3-3-3-3-3-3-3-3-3-3-3-3-3-3-3-3-3-3-3-3-3-3-3-3-3-3-3-3-3-3-3-3-3-3-3-3-3-3-3-3-3-3-3-3-|
B|-3-3-3-3-3-3-3-3-3-3-3-3-3-3-3-3-3-3-3-3-3-3-3-3-3-3-3-3-3-3-3-3-3-3-3-3-3-3-3-3-3-3-3-3-3-3-3-3-|
G|-0-0-0-0-0-0-0-0-0-0-0-0-0-0-2-2-2-2-0-0-2-2-2-2-0-0-0-0-0-0-0-0-0-0-0-0-0-0-2-2-2-2-0-0-2-2-2-2-| (2x)
D|-0-0-2-2-2-2-0-0-2-2-2-2-2-2-0-0-0-0-2-2-0-0-0-0-0-0-2-2-2-2-0-0-2-2-2-2-2-2-0-0-0-0-2-2-0-0-0-0-|
A|-2-2-0-0-0-0-2-2-0-0-0-0-3-3-3-3-3-3-3-3-3-3-3-3-2-2-0-0-0-0-2-2-0-0-0-0-3-3-3-3-3-3-3-3-3-3-3-3-|
E|-3-3-3-3-3-3-3-3-3-3-3-3-x-x-x-x-x-x-x-x-x-x-x-x-3-3-3-3-3-3-3-3-3-3-3-3-x-x-x-x-x-x-x-x-x-x-x-x-|


G             G5(7M)               G
We'll stagger home after midnight,
          G5(7M)                 C9
Sleep arm in arm the stairwell,
                Em               D
We'll fall apart on the weekend,
               D4     D
These nights go on and on and on!
exibições 5.337
Acordes para:
    Composição: blink-182 Colaboração e revisão:
    • guilherme veloso

    0 comentários

    mostrar mais comentários

    Conseguiu tocar?

    5 tocaram 0 ainda não

    Grave um vídeo tocando After Midnight e mande pra gente!

    00:00 / 00:00
    outros vídeos desta música
    repetir qualidade Automático
    Outros vídeos desta música
    00:00 / 00:00
    Automático
    OK