Cifra Club

Aliens Exist

blink-182

Cifra: Principal (violão e guitarra)
Tom: B
E|------------------------|
B|------------------------|
G|------------------------|
D|------------------------|
A|-2-2-2-2-2-2-2-2----2---|
E|------------------------|

(intro 2x) (B5   E5   G#5   E5

(verso 2)
B5             F#5                  G#5    E5  B5
What if people knew that these were real?      I leave my closet
F#5           G#5    E5  B5           C#5          G#5
door open all night.     I know the CIA would say, what your hear
   E5            B5                 F#5              G#5
is all hear-say. Wish someone would tell me what was right.

(refrão)
B5            F#5               B5             F#5
Up, all night long. And there's something very wrong. And I
   know    it      must    be      late                      been  gone    since   yes  -  ter  -  day.                 ...
E|------------------------------------------------------------------------------------------------------------------------|
B|------------------------------------------------------------------------------------------------------------------------|
G|------------------------------------------------------------------------------------------------------------------------|
D|-1-1-----1-1-----1-1-----1-1-----2-2-----2-2-----2-2-----2-2-----1-1-----1-1-----1-1-----1-1-----2-2-----2-2-----2-2----|
A|-----2-------2-------2-------2-------2-------2-------2-------2-------2-------2-------2-------2-------2-------2-------2--|
E|------------------------------------------------------------------------------------------------------------------------|

   I'm  not   like  you  guys.          I'm  not   like  you.
E|-----------------------------------------------------------|
B|-----------------------------------------------------------|
G|-----------------------------------------------------------|
D|-----------------------------------------------------------|
A|-----------------------2-----------------------------------|
E|-2----------0-------------------------2----------0---------|

(interlúdio 2x)  B5   E5   G#5   E5

(verso 3)
I am still the skeptic yes you know me. Been best friends and will be till we die.
I got an injection, of fear from the abduction. My best friend thinks I'm just telling lies.  Alright.

(refrão)
Up, all night long, and there's something very wrong. And I know it must be late,
been gone since yesterday. I'm not like you guys. I'm not like you.

(ponte
G#5             F#5       E5            B5   F#5
Dark and scary, ordinary, explanations, information.
D#5             C#5       E5                D#5  C#5
Nice to know ya. Paranoia. Where's my mother, Bio - father?

(refrão)
Up all night long, and there's something very wrong, and I know it must be late,
been gone since yesterday. I'm not like you guys.
F#5       E9      B5
Twelve  majestic  lies.
exibições 13.574
Acordes para:
    Composição: Mark Hoppus / Tom DeLonge Colaboração e revisão:
    • Jefferson Sousa

    0 comentários

    mostrar mais comentários

    Conseguiu tocar?

    7 tocaram 0 ainda não

    Grave um vídeo tocando Aliens Exist e mande pra gente!

    00:00 / 00:00
    outros vídeos desta música
    repetir qualidade Automático
    Outros vídeos desta música
    00:00 / 00:00
    Automático
    OK