Notificações Amigos pendentes

      blink-182

      All The Small Things

      525.216 exibições
      Tom: C
      Introdução: ( G5  F5 ) C5  G5
      
                  ( F5 ) C5  G5 ( F5 )
      E|---------------------------------------------------
      B|---------------------------------------------------
      G|-5-5-5-5-5-5-5-5-10-10-10-10-10-10-10-10-7-7-7-7-7-
      D|---------------------------------------------------
      A|-3-3-3-3-3-3-3-3--8--8--8--8--8--8--8--8-5-5-5-5-5-
      E|---------------------------------------------------
      
      
      E|---------------------------------------------------
      B|---------------------------------------------------
      G|-7-7-7-7-x-x-x-x-5-5-5-5-5-5-5-5-5-5-5-10-10-10-10-
      D|---------------------------------------------------
      A|-5-5-5-5-x-x-x-x-3-3-3-3-3-3-3-3-3-3-3--8--8--8--8-
      E|---------------------------------------------------
      
      
      E|---------------------------------------------------
      B|---------------------------------------------------
      G|-10-10-10-10-7-7-7-7-7-7-7-7-7-x-x-x-x-5-5-5-------
      D|---------------------------------------------------
      A|--8--8--8--8-5-5-5-5-5-5-5-5-5-x-x-x-x-3-3-3-------
      E|---------------------------------------------------
      
      
      
      Primeira Parte:
      C5         G5              F5
         All the    small things
                G5              C5
      True care,   truth brings
                G5          F5
      I'll take    one lift
                G5           C5
      Your ride    best trip
              G5        F5
      Always,    I know
                G5            C5
      You'll be    at my show
                G5          F5       G5          C5
      Watching,    waiting,    commi____serating
      
      Say it aint so, I will not go
      
      Turn the lights off, carry me home
      
      Refrão 2x:
       C5                                G5
      Na na, Na na, Na na, Na na, Na, Na
                           F5
      Na na, Na na, Na na,    Na na, Na, Na
      
      Variação da Introdução: C5  G5
      
                              ( F5 ) C5  G5 ( F5 )
      E|---------------------------------------------------
      B|---------------------------------------------------
      G|-5-5-5-5-5-5-5-5-10-10-10-10-9-9-9-9-7-7-7-7-7-----
      D|---------------------------------------------------
      A|-3-3-3-3-3-3-3-3--8--8--8--8-7-7-7-7-5-5-5-5-5-----
      E|---------------------------------------------------
      
      
      E|---------------------------------------------------
      B|---------------------------------------------------
      G|-7-7-7-7-x-x-x-x-5-5-5-5-5-5-5-5-5-5-5-10-10-10-10-
      D|---------------------------------------------------
      A|-5-5-5-5-x-x-x-x-3-3-3-3-3-3-3-3-3-3-3--8--8--8--8-
      E|---------------------------------------------------
      
      
      E|---------------------------------------------------
      B|---------------------------------------------------
      G|-9-9-9-9-7-7-7-7-7-7-7-7-7-x-x-x-x-5-5-5-----------
      D|---------------------------------------------------
      A|-7-7-7-7-5-5-5-5-5-5-5-5-5-x-x-x-x-3-3-3-----------
      E|---------------------------------------------------
      
      
      
      C5            G5           F5
        Late night,    come home
                  G5        C5
      Work sucks,    I know
                   G5            F5
      She left me roses by the stairs
           G5                      C5
      Surprises let me know she cares
      
      Say it aint so, I will not go
      
      Turn the lights off, carry me home
      
      Refrão 2x:
       C5                                G5
      Na na, Na na, Na na, Na na, Na, Na
                           F5               C5
      Na na, Na na, Na na,    Na na, Na, Na
      
      Ponte: C  F5  G5
         P.M . . . . . . . . . . . . . . . . . . . . . .
      
      E|---------------------------------------------------
      B|---------------------------------------------------
      G|-5---5---5---5---5---5---5---5---5---5---5---5-----
      D|---5---5---5---5---5---5---5---5---5---5---5---5---
      A|---------------------------------------------------
      E|---------------------------------------------------
      
         P.M . . . . . . . . . . . . . . . . . . . . . .
      
      E|---------------------------------------------------
      B|---------------------------------------------------
      G|-4---4---4---4---5---5---5---5---5---5---5---5-----
      D|---5---5---5---5---5---5---5---5---5---5---5---5---
      A|---------------------------------------------------
      E|---------------------------------------------------
      
         P.M . . . . . . . . . . . . . . . . . . . . . .
      
      E|---------------------------------------------------
      B|---------------------------------------------------
      G|-5---5---5---5---4---4---4---4---5---5---5---5-----
      D|---5---5---5---5---5---5---5---5---5---5---5---5---
      A|---------------------------------------------------
      E|---------------------------------------------------
      
         P.M . . . . . . . . . . . . . . . . . . . . . .
      
      E|---------------------------------------------------
      B|---------------------------------------------------
      G|-5---5---5---5---5---5---5---5---5---5---5---5-----
      D|---5---5---5---5---5---5---5---5---5---5---5---5---
      A|---------------------------------------------------
      E|---------------------------------------------------
      
      
      
      C5                             G5
         Say it aint so, I will not go
                      F5             C5
      Turn the lights off, carry me home
                                            G5
      Keep your head still, I'll be your thrill
                        F5                C5
      The night will go on,my little windmill
                                  G5
      Say it aint so, I will not go
                      F5             C5
      Turn the lights off, carry me home
                                            G5
      Keep your head still, I'll be your thrill
                        F5
      The night will go on, the night will go on
                     C5
      My little windmill
        Composição: Mark Hoppus / Tom DeLongeColaboração e revisão:
        • v.inny
        • hermz
        • natal
        • Mixeelziin
        • +5

        Comentários 33

        140 .
        • angeloknot182 angeloknot182: Em 21/02/2015 21:24

          Música fácil

        • Rodrigol Rodrigol: Em 29/10/2014 17:54

          musica super facinha de aprender. Vlw cifraclub!!

        • almendaresmoran almendaresmoran: Em 11/01/2013 21:32

          super cancion todo lo que he aprendido he aprendido ha sido por esta pagina gracias saludos desde honduras

        • cassiorockjr cassiorockjr: Em 02/01/2013 23:37

          isso ta super errado o F5 vem antes nas estrofes

        • rhcp_soad rhcp_soad: Em 07/10/2012 15:27

          Comentário removido

          • m4rlon1 m4rlon1: Em 19/10/2013 14:19

            Comentário removido

          • jhonnathawheslley jhonnathawheslley: Em 14/01/2014 22:15

            Quando for comentar comenta tudo de uma vez man, ta difícil comentar com seus numerosos comentários ;)

        • rhcp_soad rhcp_soad: Em 07/10/2012 15:25

          nao entedi os efeitos que o kra disse

        • rhcp_soad rhcp_soad: Em 07/10/2012 15:22

          essa musica ta com alguns erros

        • mayconkevinn mayconkevinn: Em 12/07/2012 22:35

          conseguir tocar eu consegui , mas tem alguma coisa errada nesse trem

        140 cancelar

        conseguiu tocar?

        • •••
        0:00 / 0:00
        2 versões de bateria exibições contribuição e correção
        3 versões de gaita exibições contribuição e correção
        3 versões de Guitar Proformatodownloadscontribuição
        1 versão de partiturasformatodownloadscontribuição
        play/pausefechar subir/descer velocidade
        6ª corda E5ª corda A4ª corda D3ª corda G2ª corda B1ª corda E
          acordes
          transcrição verificada v.inny instrutor de guitarra
          publicidade
          fechar
          ok