Cifra Club

All The Small Things

blink-182

Tab de baixo: Principal
Introdução

Parte 1

G|--------------------------------------------|
D|--------------------------------------------|
A|-----3-3-3-3--3-3-3-3--3-3-3-3--3-3-3-5-----|
E|-3-1----------------------------------------|
B|--------------------------------------------|

Parte 2

G|--------------------------------------------|
D|--------------------------------------------|
A|--------------------------------------------|
E|-3-3-3-3--3-3-3-3--3-x-x-x-x-1-1-1----------|
B|--------------------------------------------|

Parte 3

G|--------------------------------------------|
D|--------------------------------------------|
A|-3-3-3-3--3-3-3-3--3-3-3-3--3-3-3-5---------|
E|--------------------------------------------|
B|--------------------------------------------|

Parte 4

G|--------------------------------------------|
D|--------------------------------------------|
A|--------------------------------------------|
E|-3-3-3-3--3-3-3-3--3-x-x-x-x-1-1------------|
B|--------------------------------------------|

Primeira parte ( tocar 4x )

All the small things,True care, truth brings...

Parte 1

G|--------------------------------------------|
D|--------------------------------------------|
A|-3-3-3-3--3-3-3-3---------------------------|
E|-------------------3-3-3-3--3-3-3-3---------|
B|--------------------------------------------|

Parte 2

G|--------------------------------------------|
D|--------------------------------------------|
A|--------------------------------------------|
E|-1-1-1-1--1-1-1-1--3-3-3-3--3-3-3-3---------|
B|--------------------------------------------|

Pré-refrão

Say it aint so,I will not go,turn the lights... 

Parte 1

G|--------------------------------------------|
D|--------------------------------------------|
A|-3-3-3-3--3-3-3-3--3-3-3-3--3-3-3-3---------|
E|--------------------------------------------|
B|--------------------------------------------|

Parte 2

G|--------------------------------------------|
D|-5-5-5-5--5-5-5-5--3-3-3-3--3-3-3-3---------|
A|--------------------------------------------|
E|--------------------------------------------|
B|--------------------------------------------|

Refrão ( tocar 2x )

Na, na, na, na,na, na, na, na, na, na... 

Parte 1

G|--------------------------------------------|
D|-5-5-5-5—5-5-5-5--5-5-5-5--5-5-5-5/---------|
A|-3-3-3-3—3-3-3-3--3-3-3-3--3-3-3-3/---------|
E|--------------------------------------------|
B|--------------------------------------------|

Parte 2

G|--------------------------------------------|
D|-12-12-12-12--12-12-12-12-------------------|
A|-10-10-10-10--10-10-10-10-------------------|
E|--------------------------------------------|
B|--------------------------------------------|

G|--------------------------------------------|
D|-10-10-10-10--10-10-10-10-------------------|
A|-8--8--8--8---8--8--8--8--------------------|
E|--------------------------------------------|
B|--------------------------------------------|

Introdução 2

Parte 1

G|--------------------------------------------|
D|--------------------------------------------|
A|-3-3-3-3--3-3-3-3--3-3-3-3--3-3-3-5---------|
E|--------------------------------------------|
B|--------------------------------------------|

Parte 2

G|--------------------------------------------|
D|--------------------------------------------|
A|--------------------------------------------|
E|-3-3-3-3--3-3-3-3--3-x-x-x-x-1-1-1----------|
B|--------------------------------------------|

Parte 3

G|--------------------------------------------|
D|--------------------------------------------|
A|-3-3-3-3--3-3-3-3--3-3-3-3--3-3-3-5---------|
E|--------------------------------------------|
B|--------------------------------------------|

Parte 4

G|--------------------------------------------|
D|--------------------------------------------|
A|--------------------------------------------|
E|-3-3-3-3--3-3-3-3--3-x-x-x-x-1-1------------|
B|--------------------------------------------|

Segunda parte( tocar 2x )

Late night, come home,work sucks, I know...

Parte 1

G|--------------------------------------------|
D|--------------------------------------------|
A|-3-3-3-3--3-3-3-3---------------------------|
E|-------------------3-3-3-3--3-3-3-3---------|
B|--------------------------------------------|

Parte 2

G|--------------------------------------------|
D|--------------------------------------------|
A|--------------------------------------------|
E|-1-1-1-1--1-1-1-1--3-3-3-3--3-3-3-3---------|
B|--------------------------------------------|

Pré-refrão

Say it aint so,I will not go,turn the lights... 

Parte 1

G|--------------------------------------------|
D|--------------------------------------------|
A|-3-3-3-3--3-3-3-3--3-3-3-3--3-3-3-3---------|
E|--------------------------------------------|
B|--------------------------------------------|

Parte 2

G|--------------------------------------------|
D|-5-5-5-5--5-5-5-5--3-3-3-3--3-3-3-3---------|
A|--------------------------------------------|
E|--------------------------------------------|
B|--------------------------------------------|

Segundo Refrão ( tocar 2x )

Na, na, na, na,na, na, na, na, na, na... 

Parte 1

G|--------------------------------------------|
D|-5-5-5-5—-5-5-5-5--5-5-5-5--5-5-5-5/--------|
A|-3-3-3-3—3--3-3-3--3-3-3-3--3-3-3-3/--------|
E|--------------------------------------------|
B|--------------------------------------------|

Parte 2

G|--------------------------------------------|
D|-12-12-12-12--12-12-12-12-------------------|
A|-10-10-10-10--10-10-10-10-------------------|
E|--------------------------------------------|
B|--------------------------------------------|

G|--------------------------------------------|
D|-10-10-10-10--10-10-10-10-------------------|
A|-8--8--8--8---8--8--8--8--------------------|
E|--------------------------------------------|
B|--------------------------------------------|

Terceira parte 

Parte 1

G|--------------------------------------------|
D|-----10-12------10-12-----------------------|
A|-10--8--10--10--8--10-----------------------|
E|-8----------8-------------------------------|
B|--------------------------------------------|

Parte 2

G|--------------------------------------------|
D|----10-12-5-5-5-5--5-5-5-5--5-5-5-5-5-5-5-5-|
A|-10-8--10-3-3-3-3--3-3-3-3--3-3-3-3-3-3-3-3-|
E|-8------------------------------------------|
B|--------------------------------------------|

Parte 3

G|--------------------------------------------|
D|-10-10-10-10--10-10-10-10-------------------|
A|-8--8--8--8---8--8--8--8--------------------|
E|--------------------------------------------|
B|--------------------------------------------|

G|--------------------------------------------|
D|-12-12-12-12--12-12-12-12-------------------|
A|-10-10-10-10--10-10-10-10-------------------|
E|--------------------------------------------|
B|--------------------------------------------|

Terceiro refrão ( tocar 2x )

Say it aint so, I will not go,turn the lights.. 

Parte 1

G|--------------------------------------------|
D|-5-5-5-5—-5-5-5-5--5-5-5-5--5-5-5-5/--------|
A|-3-3-3-3—3--3-3-3--3-3-3-3--3-3-3-3/--------|
E|--------------------------------------------|
B|--------------------------------------------|

Parte 2

G|--------------------------------------------|
D|-12-12-12-12--12-12-12-12-------------------|
A|-10-10-10-10--10-10-10-10-------------------|
E|--------------------------------------------|
B|--------------------------------------------|

G|--------------------------------------------|
D|-10-10-10-10--10-10-10-10-------------------|
A|-8--8--8--8---8--8--8--8--------------------|
E|--------------------------------------------|
B|--------------------------------------------|

Quarto refrão Final

Na, na, na, na,na, na, na, na, na, na... 

Parte 1

G|--------------------------------------------|
D|-5-5-5-5—-5-5-5-5--5-5-5-5--5-5-5-5/--------|
A|-3-3-3-3—-3-3-3-3--3-3-3-3--3-3-3-3/--------|
E|--------------------------------------------|
B|--------------------------------------------|

Parte 2

G|--------------------------------------------|
D|-12-12-12-12--12-12-12-12-x-x-10-x-x-10-----|
A|-10-10-10-10--10-10-10-10-x-x-8--x-x-8------|
E|--------------------------------------------|
B|--------------------------------------------|

Parte 3

G|--------------------------------------------|
D|-5-5-5-5-—5-5-5-5--5-5-5-5--5-5-5-5/--------|
A|-3-3-3-3—-3-3-3-3--3-3-3-3--3-3-3-3/--------|
E|--------------------------------------------|
B|--------------------------------------------|

Parte 4

G|--------------------------------------------|
D|-12-12-12-12--12-12-12-12-------------------|
A|-10-10-10-10--10-10-10-10-------------------|
E|--------------------------------------------|
B|--------------------------------------------|

Parte 5

G|--------------------------------------------|
D|-x-x-10-x-x-10-x-x-10-x-x-10----------------|
A|-x-x-8--x-x-8--x-x-8--x-x-8--10-------------|
E|-----------------------------8--------------|
B|--------------------------------------------|
exibições 71.008
Composição: Mark Hoppus / Tom DeLonge Colaboração e revisão:
  • Reginaldo Costa

0 comentários

mostrar mais comentários

Conseguiu tocar?

6 tocaram 0 ainda não

Grave um vídeo tocando All The Small Things e mande pra gente!

00:00 / 00:00
outros vídeos desta música
repetir qualidade Automático
Outros vídeos desta música
00:00 / 00:00
Automático
Capítulos
  • Tocando a música
  • Dicas Iniciais e equipamentos
  • Tocando Introdução
  • Ensinando Introdução
  • Tocando Primeira Parte
  • Ensinando Primeira Parte
  • Tocando Pré-Refrão
  • Ensinando Pré-Refrão
  • Tocando Refrão
  • Ensinando Refrão
  • Tocando Introdução 2
  • Ensinando Introdução 2
  • Tocando Terceira Parte
  • Ensinando Terceira Parte
  • Tocando Final
  • Ensinando Quarto Refrão e Final
  • Encerramento
  • Créditos e erros de gravação
OK