Cifra Club

Aprenda

Always

Blink-182

Tab de baixo: Principal
Intro:
G|-----------------------------------|
D|99999999-11111111-|131313131313-99999999|
A|99999999999999999- 111111111111-77777777|
E|-----------------------------------|x2

Verso:
I've been here before a few timeS
G|-----------------------------------|
D|99999999-11111111-|131313131313-|
A|99999999999999999- 111111111111-|
E|-----------------------------------
I've been here before a few times
G|-----------------------------------|
D|99999999-11111111-|131313131313-99999999|
A|99999999999999999- 111111111111-77777777|
E|-----------------------------------
And I'm quite aware we're dying
G|-----------------------------------|
D|99999999-11111111-|131313131313|
A|99999999999999999- 111111111111|
E|-----------------------------------
And your hands they shake with goodbyes
G|-----------------------------------|
D|99999999-11111111-|131313131313|
A|99999999999999999- 111111111111|
E|-----------------------------------
And I'll take you back if you'd have me
G|-----------------------------------|
D|99999999-11111111-|131313131313-99999999|
A|99999999999999999- 111111111111-77777777|
E|-----------------------------------

Pre Refrão:
So here I am I'm trying
G|--------------|
D|9---11---13--9| 
A|9---9----11--7|
E|--------------|
So here I am are you readY
G|--------------|
D|9---11---13--9| 
A|9---9----11--7|
E|--------------|


Refrão:
Come on let me hold you touch you feel you     Always
G|-----------------------------------|
D|99999999-11111111-|131313131313-99999999|
A|99999999999999999- 111111111111-77777777|
E|-----------------------------------|
Kiss you taste you all night     Always
G|-----------------------------------|
D|99999999-11111111-|131313131313-99999999|
A|99999999999999999- 111111111111-77777777|
E|-----------------------------------|

Verso:
G|-----------------------------------|
D|99999999-11111111-|131313131313-99999999|
A|99999999999999999- 111111111111-77777777|
E|-----------------------------------|x2

Quando entrar a voz novamente, o baixo ira fazer um rif

G|8-8-6-6-8------|
D|-9---8---9--4-6|
A|---------------| Repita este rif 4x. 
E|---------------|


So here I am I'm trying
G|--------------|
D|9---11---13--9| 
A|9---9----11--7|
E|--------------|
So here I am are you ready
G|--------------|
D|9---11---13--9| 
A|9---9----11--7|
E|--------------|
So here I am I'm trying
G|--------------|
D|9---11---13--9| 
A|9---9----11--7|
E|--------------|
So here I am are you ready
G|--------------|
D|9---11---13--9| 
A|9---9----11--7|
E|--------------|

Refrão: 2x
Come on let me hold you touch you feel you     Always
G|-----------------------------------|
D|99999999-11111111-|131313131313-99999999|
A|99999999999999999- 111111111111-77777777|
E|-----------------------------------|
Kiss you taste you all night     Always
G|-----------------------------------|
D|99999999-11111111-|131313131313-99999999|
A|99999999999999999- 111111111111-77777777|
E|-----------------------------------|

Repita essa base até entrar na parte que é so bateria e voz.
G|-----------------------------------|
D|99999999-11111111-|131313131313-99999999|
A|99999999999999999- 111111111111-77777777|
E|-----------------------------------|

Refrão: 2x

 Repita essa bate até o fim da musica. 
G|-----------------------------------|
D|99999999-11111111-|131313131313-99999999|
A|99999999999999999- 111111111111-77777777|
E|-----------------------------------|
Composição de Mark Hoppus / Tom DeLonge / Travis Barker
Colaboração e revisão:
  • lucas oliveira
  • Lucas Kawakami
31.981 exibições

0 comentários

Mostrar mais comentários

Conseguiu tocar?

6 Tocaram 0 Ainda não

Grave um vídeo tocando Always e mande pra gente!

00:00 / 00:00
outros vídeos desta música
repetir qualidade Automático
Outros vídeos desta música
00:00 / 00:00
Automático

Cifra Club Pro

Aproveite o Cifra Club com benefícios exclusivos e sem anúncios
7 dias grátis
Cifra Club Pro
Aproveite o Cifra Club com benefícios exclusivos e sem anúncios
7 dias grátis
OK