Cifra Club

First Date

blink-182

Cifra: Principal (violão e guitarra)
exibições 223.533
Tom: C
(intro)

(riff 1)
    C                   D                F                  G
E |-------------------------------------------------------------------------------------------|
B |-------------------------------------------------------------------------------------------|
G |--5-5-5-5-5-5-5-5-5---4-4-4-4-4-4-4-4--2-2-2-2-2-2-2-2-------------------------------------|
D |--5-5-5-5-5-5-5-5-5---5-5-5-5-5-5-5-5--2-2-2-2-2-2-2-2---3-3-3-3-3-3----5-5-5-5-5-5--------|
A |--3-3-3-3-3-3-3-3-3---2-2-2-2-2-2-2-2--0-0-0-0-0-0-0-0---3-3-3-3-3-3----5-5-5-5-5-5--------|
E |---------------------------------------------------------1-1-1-1-1-1----3-3-3-3-3-3--------|

(baixo)
    C                   D                F                  G
E |--------------------------------------------------------------------------------------------|
B |--------------------------------------------------------------------------------------------|
G |--------------------------------------------------------------------------------------------|
D |--------------------------------------------------------------------------------------------|
A |--3-3-3-3-3-3-3-3----5-5-5-5-5-5-5-5---8-8-8-8-8-8-8-8---10-10-10-10-10-10-10-10------------|
E |--------------------------------------------------------------------------------------------|

(verso - guitarra sai, as notas sao do baixo na verdade)

C
In the car, i just can't wait
G                     F
To pick you up on our very first date
C
Is it cool if i hold your hand
G                F
Is it wrong if i think it's lame to dance
Agora entra uma guitarrinha :

(riff 2)
    C        C       G       F
E |------------------------------------------|
B |------------------------------------------|
G |--5-5-5---5-5-5---5-5-5---5-5-5-----------|
D |------------------------------------------|
A |------------------------------------------|
E |------------------------------------------|

C
Do you like my stupid hair ?
G                       F
Would you guess that i didn't know what to wear ?
C
I'm just scared of what you think
G                       F
You make me nervous so i really can't eat

(pré-refrão)
C
   let's go
G/B                 G|-5-|
   don't way        d|-5-|
                    a|-2-|
Am           F
This night is almost over
C
   honest
G/B
   let's make
Am         F   G
This night last forever

(refrão)
C      G/B
Forever and ever
Am               F    G
Let's make this last forever
C      G/B
Forever and ever
Am               F    G
Let's make this last forever

(repete intro)

C
When you smile i melt inside
G                       F
I'm not worthy for a minute of your time
C
I really wish it was only me and you
G                  F
I'm jealous of everybody in the room
C
Please don't look at me with those eyes
G                       F
Please don't hint that you're capable of lies
C
I dread the tought of our very first kiss
G               F
I target that i'm probably gonna miss

C
   let's go
G/B
   don't way
Am           F
This night is almost over
C
   honest
G/B
   let's make
Am         F   G
This night last forever

C      G/B
Forever and ever
Am               F    G
Let's make this last forever
C      G/B
Forever and ever
Am               F    G
Let's make this last forever

(pausa)

(com palm muting forte)
    C              Em               F              G
E |--------------------------------------------------------------------------------------------|
B |--------------------------------------------------------------------------------------------|
G |--5-5-5-5-5-5-------------------------------------------------------------------------------|
D |--5-5-5-5-5-5----2-2-2-2-2-2----3-3-3-3-3-3----5-5-5-5-5-5----------------------------------|
A |--3-3-3-3-3-3----2-2-2-2-2-2----3-3-3-3-3-3----5-5-5-5-5-5----------------------------------|
E |-----------------0-0-0-0-0-0----1-1-1-1-1-1----3-3-3-3-3-3----------------------------------|
(2x)

E |--------------------------------------------------------------------------------------------|
B |--------------------------------------------------------------------------------------------|
G |------5-----9-----5-----10----5-----7-----5-------------------------------------------------|
D |------x-----x-----x-----x-----x-----x-----x-------------------------------------------------|
A |------3-----7-----3-----8-----3-----5-----3-------------------------------------------------|
E |--------------------------------------------------------------------------------------------|
(4x)

C
   let's go
G/B
   don't way
Am           F
This night is almost over
C
   honest
G/B
   let's make
Am         F   G
This night last forever

C      G/B
Forever and ever
Am               F    G
Let's make this last forever
C      G/B
Forever and ever
Am               F    G
Let's make this last forever
C      G/B
Forever and ever
Am               F    G
Let's make this last forever
C      G/B
Forever and ever
Am               F    G C
Let's make this last forever
Acordes para:
    Composição: blink-182 Colaboração e revisão:
    • Alan Meneghetti
    • luiz henrique

    0 comentários

    mostrar mais comentários

    Conseguiu tocar?

    17 tocaram 0 ainda não

    Grave um vídeo tocando First Date e mande pra gente!

    00:00 / 00:00
    outros vídeos desta música
    repetir qualidade Automático
    Outros vídeos desta música
    00:00 / 00:00
    Automático
    OK