Cifra Club

Eyes On Fire

Blue Foundation

Cifra: Principal (violão e guitarra)
tom: F#
Intro

E|-------------------------------------|
B|-------------------------------------|
G|-------------------------------------| (3x)
D|-------------------------------------|
A|--------6-----4--2-----------2-----|
E|--6--6-----2---------------2-----2--|

                              B
E|-------------------------------------|
B|-------------------------------------|
G|----------------------------4-4-4----|
D|----------------------------4-4-4----|
A|--------6-----4--2--------2-2-2----|
E|--6--6-----2------------------------|

Haa haa haa haa

E|-------------------------------------|
B|-------------------------------------|
G|-------------------------------------| (3x)
D|-------------------------------------|
A|--------6-----4--2-----------2-----|
E|--6--6-----2---------------2-----2--|

                              B
E|-------------------------------------|
B|-------------------------------------|
G|----------------------------4-4-4----|
D|----------------------------4-4-4----|
A|--------6-----4--2--------2-2-2----|
E|--6--6-----2------------------------|

I'll seek you out...

E|-------------------------------------|
B|-------------------------------------|
G|-------------------------------------| (3x)
D|-------------------------------------|
A|--------6-----4--2-----------2-----|
E|--6--6-----2---------------2-----2--|

                              B
E|-------------------------------------|
B|-------------------------------------|
G|----------------------------4-4-4----|
D|----------------------------4-4-4----|
A|--------6-----4--2--------2-2-2----|
E|--6--6-----2------------------------|

I will sooth your vein ..... (1.19)

   D#
E|------------|
B|------------|
G|--8----8----|
D|--8----8----|
A|--6----6----|
E|------------|

You'll be waiting in vain...

E|-------------------------------------|
B|-------------------------------------|
G|-------------------------------------|
D|-------------------------------------|
A|--------6-----4--2-----------2-----|
E|--6--6-----2---------------2-----2--|


I got nothing for you to gain...

E|------------------------|
B|------------------------|
G|------------------------|
D|------------------------|
A|--------6-------4--2----|
E|--6--6-----2--2---------|

I'm taking it slow ....(1.47)

    D#  F#   B   A#
E|-------------------|
B|-------------------|
G|--8---11---4---3---|
D|--8---11---4---3---|
A|--6---9----2---1---|
E|-------------------|

Shuffling the cards of your game...

    D#  F#   B
E|---------------|
B|---------------|
G|--8---11---4---|
D|--8---11---4---|
A|--6---9----2---|
E|---------------|

And just in time...

    D#  F#   B   A#
E|-------------------|
B|-------------------|
G|--8---11---4---3---|
D|--8---11---4---3---|
A|--6---9----2---1---|
E|-------------------|

Suddenly I will play my ace ...

    D#  F#   B
E|---------------|
B|---------------|
G|--8---11---4---|
D|--8---11---4---|
A|--6---9----2---|
E|---------------|

(Drums)

I won't soothe your pain ...

       D#         F#            B
E|------------------------------------------|
B|------------------------------------------|
G|--8-8-8-8--11-11-11-11--4-4-4-4-4-4-4-4---| (3x)
D|--8-8-8-8--11-11-11-11--4-4-4-4-4-4-4-4---|
A|--6-6-6-6--9--9--9--9---2-2-2-2-2-2-2-2---|
E|------------------------------------------|

I got nothing for you to gain ...

    D#  F#   B
E|-------------|
B|-------------|
G|--8--11--4---|
D|--8--11--4---|
A|--6--9---2---|
E|-------------|

Chorus

Eyes on fire...

       D#        F#          B       A#
E|------------------------------------------|
B|------------------------------------------|
G|--8-8-8-8--11-11-11-11--4-4-4-4--3-3-3-3--|
D|--8-8-8-8--11-11-11-11--4-4-4-4--3-3-3-3--|
A|--6-6-6-6--9--9--9--9---2-2-2-2--1-1-1-1--|
E|------------------------------------------|

       D#         F#            B
E|------------------------------------------|
B|------------------------------------------|
G|--8-8-8-8--11-11-11-11--4-4-4-4-4-4-4-4---|
D|--8-8-8-8--11-11-11-11--4-4-4-4-4-4-4-4---|
A|--6-6-6-6--9--9--9--9---2-2-2-2-2-2-2-2---|
E|------------------------------------------|
Composição de Kirstine Stubbe Teglbjærg
Colaboração e revisão:
  • Emily Oliveira
  • Alana Maia
11.974 exibições
  • Simplificar cifra
    • ½ Tom
    • A
    • Bb
    • B
    • C
    • Db
    • D
    • Eb
    • E
    • F
    • F#
    • G
    • Ab
  • Adicionar à lista

    0 comentários

    Ver todos os comentários

    Conseguiu tocar?

    2 Tocaram 0 Ainda não

    Grave um vídeo tocando Eyes On Fire e nos envie!

    00:00 / 00:00
    Outros vídeos desta música
    Repetir Qualidade Automático
    Outros vídeos desta música
    00:00 / 00:00
    Automático

    Cifra Club Pro

    Aproveite o Cifra Club com benefícios exclusivos e sem anúncios
    Cifra Club Pro
    Aproveite o Cifra Club com benefícios exclusivos e sem anúncios
    OK