Cifra Club

Blowin' in The Wind

Bob Dylan

Cifra: Principal (violão e guitarra)
Tom: C
[Intro]

   C
E|------------------------------------------|
B|-------1--------1---------1--------1------|
G|---0--------0---------0--------0----------|
D|-----2--------2---------2--------2--------|
A|-3------------------3---------------------|
E|----------3------------------3------------|

[Primeira Parte]

(Parte 1 de 4)

     C
E|------------------------------------------|
B|-------1--------1-------------------------|
G|---0--------0-----------------------------|
D|-----2--------2---------------------------|
A|-3----------------------------------------|
E|----------3-------------------------------|

(Parte 2 de 4)

     F
E|------------------------------------------|
B|-------1--------1-------------------------|
G|---2--------2-----------------------------|
D|-----3--------3---------------------------|
A|------------------------------------------|
E|-1--------1-------------------------------|

(Parte 3 de 4)

     C
E|------------------------------------------|
B|-------1--------1---------1---------------|
G|---0--------0---------0---------0---0-----|
D|-----2--------2---------2-----------------|
A|-3------------------3---------0---2-------|
E|----------3-------------------------------|

(Parte 4 de 4)

     G
E|------------------------------------------|
B|-------0--------0--------0----------------|
G|---0--------0--------0-------0---0--------|
D|-----0--------0--------0------------------|
A|---------------------------0---2----------|
E|-3--------3--------3----------------------|
 
 C        F
How many roads
        C
Must a man walk down
   C        F          C
Before you call him a man
         C        F
Yes and how many seas 
         C
Must a white dove sail
             F            G
Before she sleeps in the sand
         C        F
Yes and how many times 
      C
Must cannonballs fly
                F       C
Before they're forever banned

[Refrão]

(Parte 1 de 4)

     F
E|------------------------------------------|
B|-------1--------1-------------------------|
G|---2--------2-----------------------------|
D|-----3--------3---------------------------|
A|------------------------------------------|
E|-1--------1-------------------------------|

(Parte 2 de 4)

     G
E|------------------------------------------|
B|-------0--------0-------------------------|
G|---0--------0-----------------------------|
D|-----0--------0---------------------------|
A|------------------------------------------|
E|-3--------3-------------------------------|

(Parte 3 de 4)

     C
E|------------------------------------------|
B|-------1----------------------------------|
G|---0-------0---0--------------------------|
D|-----2------------------------------------|
A|-3-------3---2----------------------------|
E|------------------------------------------|

(Parte 4 de 4)

     Am7
E|------------------------------------------|
B|-------1--------1-------------------------|
G|---0--------0-----------------------------|
D|-----2--------2---------------------------|
A|-0--------0-------------------------------|
E|------------------------------------------|

        F        G
The answer, my friend 
     C          C/B  Am7
Is blowin' in the   wind
    F           G             C
The answer is blowin' in the wind

( F  G  C  C/B )
( Am7  F  G  C )

[Primeira Parte]

      C        F
Yes, how many years
        C
Must a mountain exist
              F             C
Before it is washed to the sea
         C        F
Yes and how many years 
          C
Can some people exist
                  F            G
Before they're allowed to be free
         C        F
Yes and how many times
        C
Must a man turn his head
                  F               G
And pretend that he just doesn't see

[Refrão]

        F        G
The answer, my friend 
     C          C/B  Am7
Is blowin' in the   wind
    F           G             C
The answer is blowin' in the wind

( F  G  C  C/B )
( Am7  F  G  C )

[Primeira Parte]

      C        F
Yes, how many times 
        C
Must a man look up
               F               C
Before he can really see the sky
         C       F
Yes and how many ears 
     C
Must one person have
               F            G
Before he can hear people cry
         C        F
Yes and how many deaths
         C
Will it take till he knows
               F           G
That too many people have died

[Refrão]

        F        G
The answer, my friend 
     C          C/B  Am7
Is blowin' in the   wind
    F           G             C
The answer is blowin' in the wind

[Final] F  G  C  C/B 
        Am7  F  G  C
exibições 507.258

0 comentários

mostrar mais comentários

Conseguiu tocar?

59 tocaram 5 ainda não

Grave um vídeo tocando Blowin' in The Wind e mande pra gente!

00:00 / 00:00
outros vídeos desta música
repetir qualidade Automático
Outros vídeos desta música
00:00 / 00:00
Automático
Capítulos
  • Tocando a música
  • Dicas Iniciais / Equipamentos
  • Acordes da Introdução e Primeira Parte
  • Tocando a Introdução e Primeira Parte
  • Introdução
  • Primeira Parte - Parte 1 de 4
  • Primeira Parte - Parte 2 de 4
  • Primeira Parte - Parte 3 de 4
  • Primeira Parte - Parte 4 de 4
  • Acordes do Refrão
  • Tocando o Refrão
  • Refrão - Parte 1 de 4
  • Refrão - Parte 2 de 4
  • Refrão - Parte 3 de 4
  • Refrão - Parte 4 de 4
  • Encerramento
  • Ficha Técnica
OK