Cifra Club

In The Evening

Bob Dylan

Cifra: Principal (violão e guitarra)
exibições 589
Tom: E
IN THE EVENING - BOB DYLAN



(intro)

  E                         A                         E

|-------------------------|-------------------------|-------------------------|
|-------------------------|-------------------------|-------------------------|   In most of the following
|-------------------------|-------------------------|-------------------------|   verses the first four
|-------------------------|-2---2-4---4-5---5-4---4-|-------------------------|   bars are played E
|-2---2-4---4-5---5-4---4-|-0---0-0---0-0---0-0---0-|-2---2-4---4-5---5-4---4-|   throughout
|-0---0-0---0-0---0-0---0-|-------------------------|-0---0-0---0-0---0-0---0-|

                            A

|-------------------------|-------------------------|-------------------------|
|-------------------------|-------------------------|-------------------------|
|-------------------------|-------------------------|-------------------------|
|-------------------------|-2---2-4---4-5---5-4---4-|-2---2-4---4-5---5-4---4-|
|-2---2-4---4-5---5-4---4-|-0---0-0---0-0---0-0---0-|-0---0-0---0-0---0-0---0-|
|-0---0-0---0-0---0-0---0-|-------------------------|-------------------------|

  E                                                   B7

|-------------------------|-------------------------|-------------------------|
|-------------------------|-------------------------|-----0-----0-----0-----0-|
|-------------------------|-------------------------|-----0-----2-----2-----2-|
|-------------------------|-------------------------|-------1-----4-----1-----|
|-2---2-4---4-5---5-4---4-|-2---2-4---4-5---5-4---4-|-2-----------------------|
|-0---0-0---0-0---0-0---0-|-0---0-0---0-0---0-0---0-|-------------------------|

  A                         E

|-------------------------|-------------------------|-------------------------|
|-------------------------|-------------------------|-------------------------|
|-------------------------|-------------------------|-------------------------|
|-2---2-4---4-5---5-4---4-|-------------------------|-------------------------|
|-0---0-0---0-0---0-0---0-|-2---2-4---4-5---5-4---4-|-2---2-4---4-5---5-4---4-|
|-------------------------|-0---0-0---0-0---0-0---0-|-0---0-0---0-0---0-0---0-|
                                                                     In the e-(vening) . . .

       E
In the evening, baby, when the sun goes down
       A                          E
In the evening, when the sun goes down
          B7      A                      E
Sure gets lonesome when your baby's not around.

[Full verse, one-note (B) harp interlude,
followed by one verse of free harp solo]

          E
Sure gets lonesome, sleepin' all by yourself
          A                                   E
Sure gets lonesome, baby, sleepin' all by yourself
            B7                   A                              E
When you're lovin' somebody, and   she's sleepin' with somebody else
                  .    B7  .  .  |
when the sun goes down

[Harp solo:]
               x4
 E

     E                   B7          E         E

---|-4-----4-----4-----------|-2-----2----/4-----4-----|--(0)-------
---|-------------------------|-------------------------|--(0)-------
-2-|/4---4-----4-----4-----2-|-----2-----2(/4)-4-------|(0 or 1)----
---|-------------------------|-------------------------|--(2)-------
---|-------------------------|-------------------------|--(2)-------
---|-0-----0-----0-----0-----|-0-----0-----0-----0-----|--(0)-------

 E  B7

  E

|-4-----4-----4-----2-----|--------------------------|-------------------------|
|-------------------------|-----------0------------0-|-------------------------|
|-----4-----4-----4-----2-|-1-----2-----1-----2------|-1-----2---1-------------|
|-------------------------|--------------------------|-------------------------|
|-------------------------|--------------------------|-------------------------|
|-0-----0-----0-----0-----|-0-----0-----0-----0------|-0-----0-----0-----0-----|
                                                                       In the . . .
       Em  A                 E
In the evening,                     mama, when the sun goes down (Oooh Lord)
       A                          E
In the evening, when the sun goes down
          B7                A                E
Sure gets lonesome when your baby's not around,
                  E  B7
when the sun goes down.

[Harp solo verse again]


In the evening, in the evening, mama, when the sun goes down
In the evening, mama, when the sun goes down
Sure gets lonesome when your baby's not around,
when the sun goes down.
Acordes para:

    0 comentários

    mostrar mais comentários

    Conseguiu tocar?

    0 tocaram 0 ainda não

    Grave um vídeo tocando In The Evening e mande pra gente!

    00:00 / 00:00
    outros vídeos desta música
    repetir qualidade Automático
    Outro vídeos desta música
    00:00 / 00:00
    Automático
    OK