Cifra Club

Redemption Song

Bob Marley

Cifra: Principal (violão e guitarra)
exibições 2.176.719
Tom: G
[Intro]

E|---------------------------------------------------|
B|---------------------------------------------------|
G|---------------------------------------------------|
D|-------------------0h2-0---------------------------|
A|-----0-0h2-----2h3-------0h2-----------------------|
E|-2h3-------2h3-------------------------------------|

E|---------------------------------------------------|
B|---------------------------------------------------|
G|---------------------------------------------------|
D|---------0-----------------------------------------|
A|-----0-2---2-3-2-0---------------------------------|
E|-2h3---------------3-------------------------------|

E|---------------------------------------------------|
B|---------------------------------------------------|
G|---------------------------------------------------|
D|-------------------0h2-0---------------------------|
A|-----0-0h2-----2h3-------0h2-----------------------|
E|-2h3-------2h3-------------------------------------|

                       G
E|---------------------3-----------------------------|
B|--------------5-3-1--3-----------------------------|
G|---------------------0-----------------------------|
D|---------0-----------0-----------------------------|
A|-----0-2---2--3-2-0--2-----------------------------|
E|-2h3-----------------3-----------------------------|

[Primeira Parte]

     G                     Em
Old Pirates, yes, they rob I
 C             G         Am
Sold I to the merchant ships
G                        Em  
 Minutes after they took I    
C          G           Am
 From the bottom less pit
        G        Em
But my hand was made strong
C        G             Am
 By the hand of the Almighty
    G                   Em    C   G       D
We forward in this generation  triumphantly

[Refrão]

                   G    C        D         G
Won't you help to sing    these songs of freedom?
       C     D      Em  Em7  Em  Em7  Em  C
'Cause all I ever have     
   D        Em   Em7  Em  Em7  Em  C
Redemption songs
   D        Em   Em7  Em  Em7  Em  C
Redemption songs
   D        Em   Em7  Em  Em7  Em  C  D
Redemption songs

       G                            Em
Emancipate yourselves from mental slavery
             C           G       Am
None but ourselves can free our minds
         G              Em
Have no fear for atomic energy
                 C        G       Am
'Cause none of them can stop the time
     G                         Em
How long shall they kill our prophets
           C     G        Am
While we stand aside and look?
           G               Em
Yes, some say it's just a part of it
       C         G        D
We've got to fulfill the book

[Refrão]

                   G    C        D         G
Won't you help to sing    these songs of freedom?
       C     D      Em  Em7  Em  Em7  Em  C
'Cause all I ever have     
   D        Em   Em7  Em  Em7  Em  C
Redemption songs
   D        Em   Em7  Em  Em7  Em  C
Redemption songs
   D        Em   Em7  Em  Em7  Em  C  D
Redemption songs
   D        Em   
Redemption songs
Acordes para:

    0 comentários

    mostrar mais comentários

    Conseguiu tocar?

    247 tocaram 7 ainda não

    Grave um vídeo tocando Redemption Song e mande pra gente!

    00:00 / 00:00
    outros vídeos desta música
    repetir qualidade Automático
    Outros vídeos desta música
    00:00 / 00:00
    Automático
    Capítulos
    • Início
    • Tocando introdução (solo)
    • Ensinando solo da intro (parte 1)
    • Ensinando solo da intro (parte 2)
    • Ensinando solo da intro (parte 3)
    • Acordes da primeira parte
    • Tocando primeira parte
    • Ensinando o ritmo da primeira parte
    • Acordes do refrão
    • Tocando refrão
    • Ensinando o ritmo do refrão
    • Tocando trecho da música
    • Encerramento
    OK