Cifra Club

Redemption Song

Bob Marley

Cifra: Principal (violão e guitarra)
Selo Cifra Club: esta cifra foi revisada para atender aos critérios oficiais da nossa Equipe de Qualidade.
tom: G
[Tab - Intro]

E|------------------------------------------|
B|------------------------------------------|
G|------------------------------------------|
D|---------------------0h2--0---------------|
A|------0-0h2-----2h3----------2------------|
E|-3-----------3----------------------------|

E|------------------------------------------|
B|------------------------------------------|
G|------------------------------------------|
D|------------0-----------------------------|
A|------0-0h2-----2-2h3p2--0----------------|
E|-3--------------------------3-------------|

E|------------------------------------------|
B|------------------------------------------|
G|------------------------------------------|
D|---------------------0h2--0---------------|
A|------0-0h2-----2h3----------2------------|
E|-3-----------3----------------------------|

E|------------------------------------------|
B|------------------------------------------|
G|------------------------------------------|
D|------------0---2-0-----------------------|
A|------0-0h2-----3-2--0--------------------|
E|-3---------------------3------------------|

[Primeira Parte]

     G                     Em
Old Pirates, yes, they rob I
     C         G/B       Am
Sold I to the merchant ships
G                         Em
  Minutes after they took I
C           G/B   Am
  From the bottomless pit
        G        Em
But my hand was made strong
C         G/B           Am
  By the hand of the Almighty
    G                   Em
We forward in this generation
C        D
  Triumphantly

[Refrão 1]

                   G   
Won't you help to sing
C        D         G
  These songs of freedom?
       C     D     Em  
'Cause all I ever have

( Em7  Em  Em7  Em  Em7 )

C    D        G 
  Redemption songs
C    D        G    C  D
  Redemption songs

[Segunda Parte]

       G       
Emancipate yourselves
              Em
From mental slavery
             C          G/B      Am
None but ourselves can free our minds
         G              Em
Have no fear for atomic energy
                C        G/B     D
Cause none of them can stop the time

     G                         Em
How long shall they kill our prophets
           C     G/B      Am
While we stand aside and look? Uh! 
      G               Em
Some say it's just a part of it
       C         G/B      D
We've got to fulfill the book

[Refrão 2]

                   G   
Won't you help to sing
C        D         G
  These songs of freedom?
       C     D     Em  
'Cause all I ever have

( Em7  Em  Em7  Em  Em7 )

C    D        G 
  Redemption songs
C    D        G    
  Redemption songs
C    D        G 
  Redemption songs

( C  D  Em  Em7 )
( Em  Em7  Em  Em7 )
( C  D  Em  Em7 )
( Em  Em7  Em  Em7 )
( C  D  Em  Em7 )
( Em  Em7  Em  Em7 )
( C  D  Em  Em7 )
( Em  Em7  Em  Em7 )
( C  D )

[Segunda Parte]

       G
Emancipate yourselves
         Em
From mental slavery
             C          G/B      Am
None but ourselves can free our mind
          G              Em
Oh! Have no fear for atomic energy
                C        G/B     D
Cause none of them can stop the time

     G                         Em
How long shall they kill our prophets
           C     G/B      Am
While we stand aside and look?
           G               Em
Yes, some say it's just a part of it
       C         G/B      D
We've got to fulfill the book

[Refrão Final]

                   G   
Won't you help to sing
C        D         G
  These songs of freedom?
       C     D     Em  
'Cause all I ever have
C    D        G 
  Redemption songs

C     D     Em  
All I ever have
C    D        Em 
  Redemption songs
C        D         G
  These songs of freedom
C  D         G
  Songs of freedom

[Final] C  G/B  Am  D7
00:00 / 00:00
Outros vídeos desta música
Repetir
Outros vídeos desta música
3.044.997 exibições
  • Simplificar cifra
    • ½ Tom
    • A
    • Bb
    • B
    • C
    • Db
    • D
    • Eb
    • E
    • F
    • F#
    • G
    • Ab
  • Adicionar à lista

Afinação da cifra

Afinador online

    0 comentários

    Ver todos os comentários

    Entre para o Cifra Club PRO

    Tenha acesso a benefícios exclusivos no App e no Site

    • Chega de anúncios

    • Mais recursos no app do Afinador

    • Atendimento Prioritário

    • Aumente seu limite de lista

    • Ajude a produzir mais conteúdo

    00:00 / 00:00
    Capítulos
    • Início
    • Tocando introdução (solo)
    • Ensinando solo da intro (parte 1)
    • Ensinando solo da intro (parte 2)
    • Ensinando solo da intro (parte 3)
    • Acordes da primeira parte
    • Tocando primeira parte
    • Ensinando o ritmo da primeira parte
    • Acordes do refrão
    • Tocando refrão
    • Ensinando o ritmo do refrão
    • Tocando trecho da música
    • Encerramento

    Cifra Club Pro

    Aproveite o Cifra Club com benefícios exclusivos e sem anúncios
    Cifra Club Pro
    Aproveite o Cifra Club com benefícios exclusivos e sem anúncios
    OK