Cifra Club

Aprenda

Waiting In Vain

Bob Marley

Cifra: Principal (violão e guitarra)
Já pensou em usar uma coleção de roupas do Cifra Club? Responda as perguntas abaixo e nos ajude nessa missão! →
tom: A
[Intro] G#7M  C#7M  G#7M C#7M

E|-----| ---------------|---------8-----|----------------------------------------------------------|
B|--8--| --8------8--9--|--9--11-----8--|--8------8--9--9--9---------------------------------------|
G|-----| -----10--------|---------------|-----10---------------------------------------------------|
D|-----| ---------------|---------------|----------------------------------------------------------|
A|-----| ---------------|---------------|----------------------------------------------------------|
E|-----| ---------------|---------------|----------------------------------------------------------|

G#7M                   C#7M
I don't wanna wait in vain for your love
G#7M                   C#7M
I don't wanna wait in vain for your love

G#7M                           C#7M
  From the very first time I blessed my eyes on you girl
G#7M                C#7M
  My heart said follow through
G#7M                       C#7M
  But I know now that I,m way down on your line
G#7M                         C#7M
  But the waiting feeling's fine
G#7M                        C#7M
  So don't treat me like a puppet on a string
G#7M                          C#7M
  Cause I know how to do my thing
G#7M                   C#7M
  Don't talk to me, as if you think Im dumb
G#7M                              C#7M
  I wanna know when you're gonna come, see

G#7M                   C#7M
I don't wanna wait in vain for your love
G#7M                   C#7M
I don't wanna wait in vain for your love
G#7M                   C#7M
I don't wanna wait in vain for your love

        C#     Eb     Cm              Bbm
Cause when summer is here, I'm still waiting there
 C#     Eb           Cm         Bbm
Winter is here, and I'm still waiting there

[Solo] G#7M  C#7M  G#7M  C#7M
       G#7M  C#7M  G#7M  C#7M

E|--------------------------| ----8-9-11-9p8----8--------------------------------------------------|
B|---------------------9-11~| -11------------11---9/11-9~-13r11p9-11-9-9~--------------------------|
G|-------------8--8/10------| ---------------------------------------------------------------------|
D|-----6--8/10--------------| ---------------------------------------------------------------------|
A|-6/8----------------------| ---------------------------------------------------------------------|
E|--------------------------| ---------------------------------------------------------------------|

E|-13------13--------------------------------------------------------------------------------------|
B|----16b~----16-----13-16-13----------------------------------------------------------------------|
G|----------------15----------15b-15-15-13-15-13~--------------------------------------------------|
D|-------------------------------------------------------------------------------------------------|
A|-------------------------------------------------------------------------------------------------|
E|-------------------------------------------------------------------------------------------------|

E|----------------------------------------------------------13----13-16b-16-16-13-16-13~-13-13-13\-|
B|----------------------------------------13----13-16-13-15----15------------------------13-13-13\-|
G|----------------------13----13-15-13-15----15----------------------------------------------------|
D|----13----13-15-13-15----15----------------------------------------------------------------------|
A|-15----15----------------------------------------------------------------------------------------|
E|-------------------------------------------------------------------------------------------------|

 G#7M                                    C#7M
Like i said, it's been three years since I'm knocking on your door
G#7M                          C#7M
  And I still can knock some more
G#7M                      C#7M
Ooo girl, Ooo girl, Is it reasonable, I wanna know now
G#7M                   C#7M
  For I to knock some more, you see
G#7M             C#7M
  In life I know, there's lots of grief
G#7M                   C#7M
  But your love is my relief
 G#7M                   C#7M
Tears in my eyes burn, Tears in my eyes burn
      G#7M                                C#7M
While I'm waiting, while I'm waiting for my turn

G#7M                   C#7M
I don't wanna wait in vain for your love
G#7M                   C#7M
I don't wanna wait in vain for your love
G#7M                   C#7M
I don't wanna wait in vain for your love
G#7M                   C#7M
I don't wanna wait in vain for your love

G#7M
I don't wanna I don't wanna I don't wanna I don't wanna
C#7M
I don't want no wait in vain
G#7M
I don't wanna I don't wanna I don't wanna I don't wanna
C#7M
I don't wanna wait in vain
G#7M
I don't wanna I don't wannna I don't wanna I don't wanna
C#7M
I don't wanna wait in vain
G#7M
I don't wanna I don't wanna I don't wanna I don't wanna
C#7M
I don't wanna wait in vain

G#7M
I don't wanna I don't wanna I don't wanna I don't wanna
C#7M
I don't wanna wait in vain
Composição de Bob Marley
270.470 exibições
    • ½ Tom
    • A
    • Bb
    • B
    • C
    • Db
    • D
    • Eb
    • E
    • F
    • F#
    • G
    • Ab
  • Adicionar à lista

    0 comentários

    Ver todos os comentários

    Conseguiu tocar?

    19 Tocaram 1 Ainda não

    Grave um vídeo tocando Waiting In Vain e nos envie!

    00:00 / 00:00
    Outros vídeos desta música
    Repetir Qualidade Automático
    Outros vídeos desta música
    00:00 / 00:00
    Automático

    Cifra Club Pro

    Aproveite o Cifra Club com benefícios exclusivos e sem anúncios
    Cifra Club Pro
    Aproveite o Cifra Club com benefícios exclusivos e sem anúncios
    OK