Cifra Club

Aprenda

Skinny Love

Bon Iver

Cifra: Completa (violão e guitarra)
tom: C
Intro:
C|-----0---------------0---------------0-----------2-4-2-0-2-4-2-0-|
C|-----0---------------0---------------0---------------------------|
G|-----2---------------5---------------0---------------------------|
E|-----0---------------0---------------0---------------------------|
G|-2---2-----------5---5-----------0-------------------------------|
C|---------------------------------0-------------------------------|

C|-----0---------------0---------------0-----------7-9-7-4-2-4-2-0-|
C|-----0---------------0---------------0---------------------------|
G|-----2---------------5---------------0---------------------------|
E|-----0---------------0---------------0---------------------------|
G|-2---2-----------5---5-----------0-------------------------------|
C|-----------------------------------------------------------------|

C|-----0---------------0---------------0---------------5---5---4---|
C|-----0---------------0---------------0---------------------------|
G|-----2---------------5---------------0---------------------------|
E|-----0---------------0---------------0---------------------------|
G|-2---2-----------5---5-----------0-------------------------------|
C|-----------------------------------------------------------------|

C|-----0---------------0---------------0-------------------0---0---|
C|-----0---------------0---------------0-------------------0---0---|
G|-----5---------------5---------------2------------------/5---5---|
E|-----7---------------7---------------0-------------------0---0---|
G|-7---7-----------7---7-----------2---2------------------/5---5---|
C|-----------------------------------------------------------------|

C|-----0---------------0---------------0---------------0-----------|
C|-----0---------------0---------------0---------------0-----------|
G|-----0---------------0---------------0---------------0-----------|
E|-----0---------------0---------------0---------------0-----------|
G|-0---0-----------0---0-----------0---0-----------0---0-----------|
C|-0---------------0---------------0---------------0---------------|

Verso 1:
 Come on skinny love... 

C|-----0---------------0---------------0---------------------------|
C|-----0---------------0---------------0---------------------------|
G|-----2---------------5---------------0---------------------------|
E|-----0---------------0---------------0---------------------------|
G|-2---2-----------5---5-----------0-------------------------------|
C|---------------------------------0-------------------------------|

C|-----0---------------0---------------0---------------------------|
C|-----0---------------0---------------0---------------------------|
G|-----2---------------5---------------0---------------------------|
E|-----0---------------0---------------0---------------------------|
G|-2---2-----------5---5-----------0-------------------------------|
C|---------------------------------0-------------------------------|

C|-----0---------------0---------------0---------------------------|
C|-----0---------------0---------------0---------------------------|
G|-----2---------------5---------------0---------------------------|
E|-----0---------------0---------------0---------------------------|
G|-2---2-----------5---5-----------0-------------------------------|
C|---------------------------------0-------------------------------|

 Right in this moment this order's tall... 
C|-----0---------------0---------------0---------------0----------0|
C|-----0---------------0---------------0---------------0----------0|
G|-----5---------------5---------------5---------------2----------2|
E|-----7---------------7---------------7---------------0----------0|
G|-7---7-----------7---7-----------7---7-----------2---2------2---2|
C|-----------------------------------------------------------------|

UTILIZAR APENAS NA PRIMEIRA VEZ!
C|-----0---------------0---------------0--------------------------0|
C|-----0---------------0---------------0--------------------------0|
G|-----5---------------5---------------5--------------------------2|
E|-----5---------------5---------------5-------3-0----------------0|
G|-5---5-----------5---5-----------5---5-----------7-5-2---0---2--2|
C|-----------------------------------------------------------------|

Refrão:
 And I told you to be patient... 
C|-----0---------------0---------------0---------------0-----------|
C|-----0---------------0---------------0---------------0-----------|
G|-----7---------------7---------------4---------------2-----------|
E|-----8---------------8---------------3---------------1-----------|
G|-9---9-----------9---9-----------4---4-----------2---2-----------|
C|-----------------------------------------------------------------|

Verso 2:
 Come on skinny love what happened here... 
C|-----0---------------0---------------0---------------------------|
C|-----0---------------0---------------0---------------------------|
G|-----2---------------5---------------0---------------------------|
E|-----0---------------0---------------0---------------------------|
G|-2---2-----------5---5-----------0-------------------------------|
C|---------------------------------0-------------------------------|

C|-----0---------------0---------------0---------------------------|
C|-----0---------------0---------------0---------------------------|
G|-----2---------------5---------------0---------------------------|
E|-----0---------------0---------------0---------------------------|
G|-2---2-----------5---5-----------0-------------------------------|
C|---------------------------------0-------------------------------|

C|-----0---------------0---------------0---------------------------|
C|-----0---------------0---------------0---------------------------|
G|-----2---------------5---------------0---------------------------|
E|-----0---------------0---------------0---------------------------|
G|-2---2-----------5---5-----------0-------------------------------|
C|---------------------------------0-------------------------------|

 Sullen load is full, so slow on the split... 
C|-----0---------------0---------------0---------------0----------0|
C|-----0---------------0---------------0---------------0----------0|
G|-----5---------------5---------------5---------------2----------2|
E|-----7---------------7---------------7---------------0----------0|
G|-7---7-----------7---7-----------7---7-----------2---2------2---2|
C|-----------------------------------------------------------------|

Refrão:
 And I told you to be patient... 
C|-----0---------------0---------------0---------------0-----------|
C|-----0---------------0---------------0---------------0-----------|
G|-----7---------------7---------------4---------------2-----------|
E|-----8---------------8---------------3---------------1-----------|
G|-9---9-----------9---9-----------4---4-----------2---2-----------|
C|-----------------------------------------------------------------|

Outro:
 Who will love you?... 
C|-----0---------------0---------------0---------------0-----------|
C|-----0---------------0---------------0---------------0-----------|
G|-----7---------------7---------------4---------------2-----------|
E|-----8---------------8---------------3---------------1-----------|
G|-9---9-----------9---9-----------4---4-----------2---2-----------|
C|-----------------------------------------------------------------|

Final:
C|-----0---------------0---------------0-----------2-4-2-0-2-4-2-0-|
C|-----0---------------0---------------0---------------------------|
G|-----2---------------5---------------0---------------------------|
E|-----0---------------0---------------0---------------------------|
G|-2---2-----------5---5-----------0-------------------------------|
C|---------------------------------0-------------------------------|

C|-----0---------------0---------------0-----------7-9-7-4-2-4-2-0-|
C|-----0---------------0---------------0---------------------------|
G|-----2---------------5---------------0---------------------------|
E|-----0---------------0---------------0---------------------------|
G|-2---2-----------5---5-----------0-------------------------------|
C|-----------------------------------------------------------------|

C|-----0---------------0---------------0---------------5---5---4---|
C|-----0---------------0---------------0---------------------------|
G|-----2---------------5---------------0---------------------------|
E|-----0---------------0---------------0---------------------------|
G|-2---2-----------5---5-----------0-------------------------------|
C|-----------------------------------------------------------------|

C|-----0---------------0---------------0-------------------0---0---|
C|-----0---------------0---------------0-------------------0---0---|
G|-----5---------------5---------------2------------------/5---5---|
E|-----7---------------7---------------0-------------------0---0---|
G|-7---7-----------7---7-----------2---2------------------/5---5---|
C|-----------------------------------------------------------------|
Composição de Justin Vernon
Colaboração e revisão:
  • Vítor
5.342 exibições
    • ½ Tom
    • A
    • Bb
    • B
    • C
    • Db
    • D
    • Eb
    • E
    • F
    • F#
    • G
    • Ab
  • Adicionar à lista

    0 comentários

    Ver todos os comentários
    00:00 / 00:00
    outros vídeos desta música
    repetir qualidade Automático
    Outros vídeos desta música
    00:00 / 00:00
    Automático

    Cifra Club Pro

    Aproveite o Cifra Club com benefícios exclusivos e sem anúncios
    Cifra Club Pro
    Aproveite o Cifra Club com benefícios exclusivos e sem anúncios
    OK