Cifra Club

Because We Can

Bon Jovi

Cifra: Principal (violão e guitarra)
Tom: F
F                        Bb           F
I don't wanna be another wave in the ocean
Bb       F              C
I am a rock  not just another grain of sand (that's right)
F                              Bb                F
I wanna be the one you run to when you need a shoulder
Bb            F            C
I ain't a soldier but I'm here to take a stand because we can

( F  Bb  F  Bb  F  C )

Riff 1:

E|--5-5-5-5-5-3-5-5--6-6-6-8-5-5-5-5--6-6-6-8-5-5-5-5------------8-8-8-|
B|--6-6-6-6-6-6-6-6--6-6-6-6-6-6-6-6--6-6-6-6-6-6-6-6--8-8-8-8-8-8-8-8-|
G|--5-5-5-5-5-5-5-5----------5-5-5-5----------5-5-5-5--5-5-5-5-5-5-5-5-|
D|---------------------------------------------------------------------|
A|---------------------------------------------------------------------|
E|---------------------------------------------------------------------|

Bb                     Dm
She's in the kitchen starin' out the window
Bb                   Dm
So tired of livin' life in black and white
Bb                            Dm
Right now she's missin' those technicolour kisses
Bb                     C
When he turns down the lights
Bb                  Dm
But lately feelin' like a broken promise
Bb             Dm
In the mirror starin' down his doubt
Bb                           Dm
There's only one thing in this world that he'd know
Bb                        C
He said forever and he'll never let her down

F                        Bb           F
I don't wanna be another wave in the ocean
Bb       F              C
I am a rock  not just another grain of sand (that's right)
F                              Bb                F
I wanna be the one you run to when you need a shoulder
Bb            F            C
I ain't a soldier but I'm here to take a stand because we can

F  Bb  F

Bb                Dm
Eatin' takeout on a coffee table
Bb            Dm
Paper dishes  pour a glass of wine
Bb                      Dm
Turn down the sound and move a little closer
Bb                      C
And for the moment everything is alright
F                        Bb           F
I don't wanna be another wave in the ocean
Bb       F              C
I am a rock  not just another grain of sand (that's right)
F                              Bb                F
I wanna be the one you run to when you need a shoulder
Bb            F            C
I ain't a soldier but I'm here to take a stand because we can

         Bb   F      Bb               F
Because we can  our love can move a mountain
   Bb   F      Bb         C
We can  if you believe in we
   Bb  F     Bb                F
We can  just wrap your arms around me
   Bb F  Bb  C
We can  we can

Guitar Solo!!

(F  Bb  F   Bb  F  C) x2

E|--5----5-6-----6p5-----6-----6p5---------------------------|
B|--6-6------6-------6-----6------6----6/8-10-8----8-10------|
G|--5--5-------5-------5-----5------5-----------10------10~--|
D|-----------------------------------------------------------|    2x
A|-----------------------------------------------------------|
E|-----------------------------------------------------------|

E|------------------------20b22-20-17----17------------------|
B|------------------------------------20----20-17-18~--------|
G|---------------7-8-9~--------------------------------------|
D|--------7-8-10---------------------------------------------|
A|-7-8-10----------------------------------------------------|
E|-----------------------------------------------------------|

F                        Bb           F
I don't wanna be another wave in the ocean
Bb       F              C
I am a rock  not just another grain of sand (that's right)
F                              Bb                F
I wanna be the one you run to when you need a shoulder
Bb            F            C
I ain't a soldier but I'm here to take a stand

F                        Bb           F
I don't wanna be another wave in the ocean
Bb       F              C
I am a rock  not just another grain of sand (that's right)
F                              Bb                F
I wanna be the one you run to when you need a shoulder
Bb            F            C
I ain't a soldier but I'm here to take a stand

         Bb   F      Bb               F
Because we can  our love can move a mountain
   Bb   F      Bb         C
We can  if you believe in we
   Bb  F     Bb                F
We can  just wrap your arms around me
   Bb F    Bb  C
We can  we can

Final (Solo 2x)

F  Bb  F   Bb  F  C x2
exibições 19.008
Acordes para:
    Composição: Billy Falcon / Jon Bon Jovi / Richie Sambora Colaboração e revisão:
    • Felipe Becker
    • Claudyego Andrade

    0 comentários

    mostrar mais comentários

    Conseguiu tocar?

    13 tocaram 1 ainda não

    Grave um vídeo tocando Because We Can e mande pra gente!

    00:00 / 00:00
    outros vídeos desta música
    repetir qualidade Automático
    Outros vídeos desta música
    00:00 / 00:00
    Automático
    OK