Cifra Club

Kit Kat Clock

Bottle Rockets

Cifra: Principal (violão e guitarra)
Selo Cifra Club: esta cifra foi revisada para atender aos critérios oficiais da nossa Equipe de Qualidade.
tom: E
Chorus - A B E A B B7

Intro/Main Riff - Play twice at beginning, once at end of each verse. 
Play it 3x after last verse followed by B B E.


  E
E||-9--9--9---------|
B||-10-10-9-10-10-9-|
G||---------11-11-9-|
D||-----------------|
A||-----------------|
E||-----------------|


E             A              E
Kit Kat Clock hangin' in the kitchen
      E                    B
Keeps waggin' his tail and rollin' his eyes
      A                   B         E
Don't seem to worry 'bout what he's missin'
  E                 C#m  
I wonder why should I? 
  B                 E
I wonder why should I?


Kit Kat Clock doesn't seem to mind
That he's gettin' older every roll of his eyes
Just hangs there and he don't look scared
Wish I could be so wise 
Wish I could be so wise


Chorus

A         B          E
Who knows where time goes?
  A                            B           B7
I waste mine thinkin' 'bout it I suppose


But the Kit Kat Clock maybe understands
Ticks and tocks out of his hands
He just hangs there and he keeps on grinnin'
I don't know why I can't 
I don't know why I can't


Lead Riff
  E                A     E                    B           A                
E||-0-0-0-0--------|------------|-------------|-4-2-2-----|-2h4-4-4-2p0-----|
B||-5-5-5-5-2p0----|-----2------|-----2---2-5-|-----------|-------------4p2-|
G||-------------2p0|-2h4---4----|-2h4---4-----|-----------|-----------------|
D||----------------|------------|-------------|-----------|-----------------|
A||----------------|------------|-------------|-----------|-----------------|
E||----------------|------------|-------------|-----------|-----------------|


B       E                       C#m           B                 E
E|-------------|-4-2-0-----------| /4---------|-------4-2-0-----|-0-----------|
B|-5-4-2p0-----|-------4-2-0-----| /5---------|-----0-------2-0-|-------------|
G|-------------|-------------1h2/| /6---------|-1h2-------------|-------------|
D|---------2---|-----------------|-----------|-----------------|-------------|
A|-------------|-----------------|-----------|-----------------|-------------|
E|-------------|-----------------|-----------|-----------------|-------------|

Repeat Chorus

But the Kit Kat Clock hangin' in the kitchen
Keeps waggin' his tail like he's feelin' fine
Makes me wonder why I've been itchin'
To get him off of my mind
To get him off of my mind
To get him off of my mind
To get him off of my mind
Outros vídeos desta música
    0 exibições
      • ½ Tom
      • A
      • Bb
      • B
      • C
      • Db
      • D
      • Eb
      • E
      • F
      • F#
      • G
      • Ab
    • Adicionar à lista

    Afinação da cifra

    Afinador online

      0 comentários

      Ver todos os comentários

      Conseguiu tocar?

      0Tocaram0Ainda não

      Grave um vídeo tocando Kit Kat Clock e nos envie!

      Toque também

      1. Imagem do artista SlobberboneYour Excuse Slobberbone
      2. Imagem do artista Son VoltStrands Son Volt
      3. Imagem do artista Uncle TupeloGun Uncle Tupelo
      4. Imagem do artista Robbie FulksWhere I Fell Robbie Fulks

      Entre para o Cifra Club PRO

      Tenha acesso a benefícios exclusivos no App e no Site

      • Chega de anúncios

      • Badges exclusivas

      • Mais recursos no app do Afinador

      • Atendimento Prioritário

      • Aumente seu limite de lista

      • Ajude a produzir mais conteúdo

      Cifra Club Pro

      Aproveite o Cifra Club com benefícios exclusivos e sem anúncios
      Cifra Club Pro
      Aproveite o Cifra Club com benefícios exclusivos e sem anúncios
      Ops (: Contenido disponible sólo en portugués.
      OK