Cifra Club

Aprenda

Elevator

Box Car Racer

Cifra: Principal (violão e guitarra)
Tom: G
[Intro e Verso]

      G
E|--------------------------------------------|
B|--------------------------------------------|
G|-----------0-------0--------0--------0------|
D|-----------4-------5--------5--------5------|
A|-----------x-------x--------x--------x------|
E|-3-3--3-3--3-3---3-3---3-3--3---3-3--3------|

          C                        B
E|-------------------------------------------------------|
B|-------------------------------------------------------|
G|------------0---------0----------------0-----------0---|
D|-----------10---------9----------------9-----------9---|
A|------------x---------x----------------x-----------x---|
E|-5s7---8-8--8--8-8--8-8---------7-7--7-7----7-7--7-7---|

G              C
  The building turned 
              B
it's back ignored my call
G              C
  The concrete looks too 
          B
thin to break my fall
G             C
  The sunset stretched 
              B
across this nighttime scene

G           C
  I counted people as I 
  B                 G
neared the street below
   C   B     G
Whoa-oa-oa Below
   C   B
Whoa-oa-oa

G          C
  I saw it all I 
         B
saw it all go down
G            C
  The shadow grew as he
    B
approached the ground
G             C
  The sunset stretched 
              B
across this nighttime scene

G           C
  I turned away as he came 
  B
near the street
     G C     B
below Whoa-oa-oa
     G C     B
Below Whoa-oa-oa
Below

      G
E|--------------------------------------------|
B|--------------------------------------------|
G|-----------0-------0--------0--------0------|
D|-----------4-------5--------5--------5------|
A|-----------x-------x--------x--------x------|
E|-3-3--3-3--3-3---3-3---3-3--3---3-3--3------|

          C                        B
E|-------------------------------------------------------|
B|-------------------------------------------------------|
G|------------0---------0----------------0-----------0---|
D|-----------10---------9----------------9-----------9---|
A|------------x---------x----------------x-----------x---|
E|-5s7---8-8--8--8-8--8-8---------7-7--7-7----7-7--7-7---|

G          C          B
  Let's forget this all move on

G          C          B
  Let's forget this all move on

G          C          B
  Let's forget this all move on

G          C          B
  Let's forget this all move on

G          C          B
  Let's forget this all move on

G          C          B
  Let's forget this all move on

G          C          B
  Let's forget this all move on
Composição de Tom DeLonge / Travis Barker
Colaboração e revisão:
  • Renan Luiz
2.631 exibições
    • ½ Tom
    • A
    • Bb
    • B
    • C
    • Db
    • D
    • Eb
    • E
    • F
    • F#
    • G
    • Ab
  • Adicionar à lista

    0 comentários

    Mostrar mais comentários

    Conseguiu tocar?

    1 Tocaram 0 Ainda não

    Grave um vídeo tocando Elevator e mande pra gente!

    00:00 / 00:00
    outros vídeos desta música
    repetir qualidade Automático
    Outros vídeos desta música
    00:00 / 00:00
    Automático

    Cifra Club Pro

    Aproveite o Cifra Club com benefícios exclusivos e sem anúncios
    7 dias grátis
    Cifra Club Pro
    Aproveite o Cifra Club com benefícios exclusivos e sem anúncios
    7 dias grátis
    OK