Cifra Club

Aprenda

I Feel So

Box Car Racer

Cifra: Principal (violão e guitarra)
Tom: E
[Intro piano]

E|-----------------|------7---------------|-------------------|--------------------------3~~--|
B|--------12-----13|---------------10-----|---------13------12|------8----------7--------X----|
G|-12-----10--11---|-9------11---------7--|--12---------11----|-9----------7-------------0~~--|
D|-----11----------|----9----------7------|------12-----------|----7----------4----------0~~--|
A|-10---------9----|-7---------9----------|--10---------9-----|-7----------5-------------X----|
E|-----------------|----------------------|-------------------|--------------------------3~~--|

[Intro Violão]

E|------------------------------------
B|------------------------------------
G|-----4-----5~~------4-----2~~-------   (2x)
D|--5--5--4--4~~---2--2--4--4~~-------
A|------------------------------------
E|------------------------------------

[Guitarra]

E|------------------------------------
B|------------------------------------
G|------------------------------------   (2x)
D|-5~~~~~~~~~~~~~~--------------------
A|-5~~~~~~~~~~~~~~--------------------
E|-3~~~~~~~~~~~~~~--------------------

E|------------------------
B|--8-8-8-8-8-8-8-8-8-8---
G|--x-x-x-x-x-x-x-x-x-x---   
D|--5-5-5-5-5-5-5-5-5-5---
A|------------------------
E|------------------------


Riff 1 
E|------------------------------------              
B|------------------------------------              
G|------------------------7-7-7-7-----  (3x)       
D|--5----5--5--5----5--5--x-x-x-x-----              
A|--5----5--5--5----5--5--5-5-5-5-----                 
E|--0h3--3--3--0h3--3--3--------------                 
                                                 
E|--------------------------------                 
B|--------------------------------                     
G|--------------------------------                     
D|--5----5--5--5----5--5--7-/-9---               
A|--5----5--5--5----5--5--7-/-9---                 
E|--0h3--3--3--0h3--3--3--5-/-7---         


Verso 01

Riff 2:

E|------------------------------------
B|------------------------------------
G|-----4-----5~~------4-----2~~-------   (2x)
D|--5--5--4--4~~---2--2--4--4~~-------
A|------------------------------------
E|------------------------------------

Sometimes
I wish I was brave
I wish I was stronger
I wish I could feel no pain


Riff 3:
 
E|---------------------------       
B|---------------------------       
G|---------------------------  (2x)       
D|--5-5---4-4---2-2---4-4----       
A|--5-5---5-5---2-2---5-5----       
E|--3-3---2-2---0-0---2-2----      

  P.M .......................

I wish I was young 
I wish I was shy
I wish I was honest
I wish I was you not I



Refrão:

E|-------------------------------------------------  
B|-------------------------------------------------
G|--9-9-9-9-9---8-8-8-8-8---6-6-6-6-6---8-8-8-8-8--  (2x)
D|--9-9-9-9-9---9-9-9-9-9---6-6-6-6-6---9-9-9-9-9--
A|--7-7-7-7-7---6-6-6-6-6---4-4-4-4-4---6-6-6-6-6--
E|-------------------------------------------------

        E5
Cause i feel so mad
  B/D#
I feel so angry
  C#5
I feel so callused
   B/D#
So lost, confused, again

   E5
I feel so cheap
   B/D#
So used, unfaithful
C#5
Let´s start over
B/D#
Let´s start over


Riff 1 :

E|------------------------------------              
B|------------------------------------              
G|------------------------7-7-7-7-----  (3x)       
D|--5----5--5--5----5--5--x-x-x-x-----              
A|--5----5--5--5----5--5--5-5-5-5-----                 
E|--0h3--3--3--0h3--3--3--------------                 
                                                 
E|--------------------------------                 
B|--------------------------------                     
G|--------------------------------                     
D|--5----5--5--5----5--5--7-/-9---               
A|--5----5--5--5----5--5--7-/-9---                 
E|--0h3--3--3--0h3--3--3--5-/-7---         


Verso 02:

Riff 2:

E|------------------------------------
B|------------------------------------
G|-----4-----5~~------4-----2~~-------   (2x)
D|--5--5--4--4~~---2--2--4--4~~-------
A|------------------------------------
E|------------------------------------

Sometimes
I wish I was smart
I wish I made cures for 
How people are


Riff 3:
 
E|---------------------------       
B|---------------------------       
G|---------------------------  (2x)       
D|--5-5---4-4---2-2---4-4----       
A|--5-5---5-5---2-2---5-5----       
E|--3-3---2-2---0-0---2-2----      

  P.M .......................

I wish I had power
I wish I could lead
I wish I could change the world 
For you and me



Refrão:

E|-------------------------------------------------  
B|-------------------------------------------------
G|--9-9-9-9-9---8-8-8-8-8---6-6-6-6-6---8-8-8-8-8--  (2x)
D|--9-9-9-9-9---9-9-9-9-9---6-6-6-6-6---9-9-9-9-9--
A|--7-7-7-7-7---6-6-6-6-6---4-4-4-4-4---6-6-6-6-6--
E|-------------------------------------------------

        E5
Cause i feel so mad
  B/D#
I feel so angry
  C#5
I feel so callused
   B/D#
So lost, confused, again

   E5
I feel so cheap
   B/D#
So used, unfaithful
C#5
Let´s start over
B/D#
Let´s start over


Interlúdio:

E|------------------------------------
B|------------------------------------
G|------------------------------------   (2x)
D|-5~~~~~~~~~~~~~~--------------------
A|-5~~~~~~~~~~~~~~--------------------
E|-3~~~~~~~~~~~~~~--------------------


E|------------------------------------              
B|------------------------------------              
G|------------------------7-7-7-7-----  (8x)       
D|--5----5--5--5----5--5--x-x-x-x-----              
A|--5----5--5--5----5--5--5-5-5-5-----                 
E|--0h3--3--3--0h3--3--3--------------                 
                                                 

E|--------------------
B|--------------------
G|--4-4-4-4-4-4-4-----
D|--x-x-x-x-x-x-x-----  (4x)
A|--2-2-2-2-2-2-2-----
E|--------------------


Refrão 2x:

E|-------------------------------------------------  
B|-------------------------------------------------
G|--9-9-9-9-9---8-8-8-8-8---6-6-6-6-6---8-8-8-8-8--  (2x)
D|--9-9-9-9-9---9-9-9-9-9---6-6-6-6-6---9-9-9-9-9--
A|--7-7-7-7-7---6-6-6-6-6---4-4-4-4-4---6-6-6-6-6--
E|-------------------------------------------------


        E5
Cause i feel so mad
  B/D#
I feel so angry
  C#5
I feel so callused
   B/D#
So lost, confused, again

   E5
I feel so cheap
   B/D#
So used, unfaithful
C#5
Let´s start over
B/D#
Let´s start over


Final:

E5
Let´s start over
Composição de Tom DeLonge / Travis Barker
Colaboração e revisão:
  • Renan Luiz
85.435 exibições
    • ½ Tom
    • A
    • Bb
    • B
    • C
    • Db
    • D
    • Eb
    • E
    • F
    • F#
    • G
    • Ab
  • Adicionar à lista

    0 comentários

    Mostrar mais comentários

    Conseguiu tocar?

    1 Tocaram 1 Ainda não

    Grave um vídeo tocando I Feel So e mande pra gente!

    00:00 / 00:00
    outros vídeos desta música
    repetir qualidade Automático
    Outros vídeos desta música
    00:00 / 00:00
    Automático

    Cifra Club Pro

    Aproveite o Cifra Club com benefícios exclusivos e sem anúncios
    7 dias grátis
    Cifra Club Pro
    Aproveite o Cifra Club com benefícios exclusivos e sem anúncios
    7 dias grátis
    OK