Cifra Club

There is

Box Car Racer

Cifra: Principal (violão e guitarra)
exibições 103.623
Tom: C#
E5 
E|---|
B|---|
G|---|
D|-2-|
A|-2-|
E|-0-|

(intro)
    D#5         C#5         B5          C#5   Bb5 (2x)
E|--------------------------------------------------|
B|--------------------------------------------------|
G|-88888888888-66666666666-44444444444-66666-3333---|
D|-xxxxxxxxxxx-xxxxxxxxxxx-xxxxxxxxxxx-xxxxx-xxxx---|
A|-66666666666-44444444444-22222222222-44444-1111---|
E|--------------------------------------------------|

(base com só um violão)
E|--------------------------------------------------|
B|--------------------------------------------------|
G|-44444444444-44444444444--------------------------|
D|-xxxxxxxxxxx-xxxxxxxxxxx-66666666666-22222222222--|
A|-22222222222-11111111111-xxxxxxxxxxx-22222222222--|
E|-------------------------44444444444-00000000000--|

This vacation's useless
These white pills are kind
I've given a lot of thought on
This thirteen hour drive
I miss the grinded concrete
Where we sat past eight or nine
And slowly finish laughing
In the glow of our headlights
I've given a lot of thought to
The nights we use to have
The days have come and gone
Our lives went by so fast
I faintly remember breathing
On your bedroom floor
Where I layed and told you
But you swear you loved me more

(refrão - violão 1)
Segue o mesmo ritmo da base
E|--------------------------------------------------|
B|--------------------------------------------------|
G|-44444444444-44444444444--------------------------|
D|-xxxxxxxxxxx-xxxxxxxxxxx-66666666666-22222222222--|
A|-22222222222-11111111111-xxxxxxxxxxx-22222222222--|
E|-------------------------44444444444-00000000000--|

(refrão - violão 2)
E|---------------------------|
B|-------2----------2--------|
G|--4--4---4--4--4----4------|
D|---4------4---4-------4----| Durante todo o refrão
A|---------------------------|
E|---------------------------|

Do you care if I
Don't know what to say?
Will you sleep tonight?
Will you think of me?
Will I shake this off?
Pretend it's all ok
That there's someone out there who feels just like me
There is

(repete intro 1x)
    D#5         C#5         B5          C#5   Bb5
E|--------------------------------------------------|
B|--------------------------------------------------|
G|-88888888888-66666666666-44444444444-66666-3333---|
D|-xxxxxxxxxxx-xxxxxxxxxxx-xxxxxxxxxxx-xxxxx-xxxx---|
A|-66666666666-44444444444-22222222222-44444-1111---|
E|--------------------------------------------------|

(verso)
(volta a fazer a base da 1a. parte)
E|--------------------------------------------------|
B|--------------------------------------------------|
G|-44444444444-44444444444--------------------------|
D|-xxxxxxxxxxx-xxxxxxxxxxx-66666666666-22222222222--|
A|-22222222222-11111111111-xxxxxxxxxxx-22222222222--|
E|-------------------------44444444444-00000000000--|

Those notes you wrote me
I've kept them all
I've given a lot of thought of how to write you back this fall
With every single letter
In every single word
There will be a hidden message
About a boy that loves a girl

(refrão - violão 1)
(segue o mesmo ritmo da base)
E|--------------------------------------------------|
B|--------------------------------------------------|
G|-44444444444-44444444444--------------------------|
D|-xxxxxxxxxxx-xxxxxxxxxxx-66666666666-22222222222--|
A|-22222222222-11111111111-xxxxxxxxxxx-22222222222--|
E|-------------------------44444444444-00000000000--|

(refrão - violão 2)
E|---------------------------|
B|-------2----------2--------|
G|--4--4---4--4--4----4------|
D|---4------4---4-------4----| (durante todo o refrão)
A|---------------------------|
E|---------------------------|

Do you care if I
Don't know what to say?
Will you sleep tonight?
Will you think of me?
Will I shake this off?
Pretend it's all ok
That there's someone out there who feels just like me
There is

(passagem)
E|--------------------------------------------------|
B|--------------------------------------------------|
G|-88888888888-99999999999-------------99999999999--|
D|-xxxxxxxxxxx-xxxxxxxxxxx-66666666666-xxxxxxxxxxx--|
A|-66666666666-77777777777-xxxxxxxxxxx-77777777777--|
E|-------------------------44444444444--------------|

E|--------------------------------------------------|
B|--------------------------------------------------|
G|-88888888888-66666666666-44444444444--------------|
D|-xxxxxxxxxxx-xxxxxxxxxxx-xxxxxxxxxxx-44444444444--|
A|-66666666666-44444444444-22222222222-xxxxxxxxxxx--|
E|-------------------------------------22222222222--|

(refrão - violão 1)
E|--------------------------------------------------|
B|--------------------------------------------------|
G|-44444444444-44444444444--------------------------|
D|-xxxxxxxxxxx-xxxxxxxxxxx-66666666666-22222222222--|
A|-22222222222-11111111111-xxxxxxxxxxx-22222222222--|
E|-------------------------44444444444-00000000000--|

Do you care if I
Don't know what to say?
Will you sleep tonight?
Will you think of me?
Will I shake this off?
Pretend it's all ok
That there's someone out there who feels just like me

(refrão - violão 1)
E|--------------------------------------------------|
B|--------------------------------------------------|
G|-44444444444-44444444444--------------------------|
D|-xxxxxxxxxxx-xxxxxxxxxxx-66666666666-22222222222--|
A|-22222222222-11111111111-xxxxxxxxxxx-22222222222--|
E|-------------------------44444444444-00000000000--|

(refrão - violão 2)
E|---------------------------|
B|-------2----------2--------|
G|--4--4---4--4--4----4------|
D|---4------4---4-------4----| (durante todo o refrão)
A|---------------------------|
E|---------------------------|

Do you care if I
Don't know what to say
Will you sleep tonight
Will you think of me
Will I shake this off
Pretend it's all ok
That there's someone out there who feels just like me
There is

( B5 )
Acordes para:
    Composição: Tom DeLonge / Travis Barker Colaboração e revisão:
    • Neir Oliva
    • XX XX
    • Guilherme Dias

    0 comentários

    mostrar mais comentários

    Conseguiu tocar?

    4 tocaram 0 ainda não

    Grave um vídeo tocando There is e mande pra gente!

    00:00 / 00:00
    outros vídeos desta música
    repetir qualidade Automático
    Outros vídeos desta música
    00:00 / 00:00
    Automático
    OK