Cifra Club

Heaven

Boyce Avenue

Cifra: Principal (violão e guitarra)
tom: B (forma dos acordes no tom de C) Afinação: Eb Ab Db Gb Bb Eb
[Intro] C  C11 
        C  C11 

[primeira parte]

C     Am                    G
Oh  thinkin' about all our younger years
          Dm            Am
There was only you and me
         Bb                  G
We were young and wild and free

C      Am                    G
  Now nothin' can take you away from me
            Dm               Am
We've been down that road before
           Bb       F/A
But that's over now
             G
You keep me comin' back for more

[refrão]

 F          G           Am
Baby you're all that i want
             C               F
When you're lying here in my arms
     F          G          Am            G
I'm finding it hard to believe we're in heaven
     F      G           Am
And love is all that i need
       C                     F
And i found it here in your heart
F             G       Am           G
It isn't too hard to see we're in heaven

( C  C11 )
( C  C11 )

[segunda parte]

C   Am                     G
Oh, once in your life you find someone
          Dm               Am
Who will turn your world around
          Bb                      G
Bring you up when you're feeling down

C      Am                            G
Yeah, nothing could change what you mean to me
            Dm                Am
Oh there's lots that i could say
          Bb          F/A
But just hold me now
           G
Cause our love will light the way

[refrão]

 F          G           Am
Baby you're all that i want
             C               F
When you're lying here in my arms
     F          G          Am            G
I'm finding it hard to believe we're in heaven
     F      G           Am
And love is all that i need
       C                     F
And i found it here in your heart
F             G       Am           G
It isn't too hard to see we're in heaven

[ponte]

Dm                        F
I've been waiting for so long
     C              Am
For something to arrive
     Dm            G
For love to come along
 Dm                         F
Now our dreams are coming true
             C                  Am
Through the good times and the bad
                G
Yeah, i'll be standing there by you

[Solo] F  G  Am  C  F
       F  G  Am  G  

E|--------------------------------|
B|-------7-8-8h10---8p6-6h8\------|
G|---5/9--------------------------|
D|--------------------------------|
A|--------------------------------|
E|--------------------------------|

E|--------------------------------|
B|------------5h6p5---------------|
G|--------5-7-------7-5-----------|
D|----5h7---------------5/7-------|
A|--------------------------------|
E|--------------------------------|

E|--------------------------------|
B|--------8-8h10---8p6-6h8--------|
G|---7/9--------------------------|
D|--------------------------------|
A|--------------------------------|
E|--------------------------------|

E|--------------------------------|
B|--------------------------------|
G|-------7-9--9b10--9-7--5h7------|
D|----10--------------------------|
A|--------------------------------|
E|--------------------------------|

E|--------------------------------|
B|--------------------------------|
G|---5p4p2------------------------|
D|---------5p3p2------------------|
A|--------------------------------|
E|--------------------------------|

[refrão]

 F          G           Am
Baby you're all that i want
             C               F
When you're lying here in my arms
     F          G          Am            G
I'm finding it hard to believe we're in heaven
     F      G           Am
And love is all that i need
       C                     F
And i found it here in your heart
F             G       Am           G
It isn't too hard to see we're in heaven
00:00 / 00:00
Outros vídeos desta música
Repetir
Outros vídeos desta música
Composição de Bryan Adams
174.324 exibições
    • ½ Tom
    • A
    • Bb
    • B
    • C
    • Db
    • D
    • Eb
    • E
    • F
    • F#
    • G
    • Ab
  • Adicionar à lista

    0 comentários

    Ver todos os comentários

    Conseguiu tocar?

    31 Tocaram 1 Ainda não

    Grave um vídeo tocando Heaven e nos envie!

    Entre para oCifra Club PRO

    Tenha acesso a benefícios exclusivos no App e no Site

    • Chega de anúncios

    • Prioridade de compra em lançamentos

    • Mais recursos no app do Afinador

    • Atendimento Prioritário

    • Descontos nos produtos Cifra Club

    • Ajude a produzir mais conteúdo

    00:00 / 00:00

    Cifra Club Pro

    Aproveite o Cifra Club com benefícios exclusivos e sem anúncios
    Cifra Club Pro
    Aproveite o Cifra Club com benefícios exclusivos e sem anúncios
    OK