Cifra Club

Aprenda

We Can't Stop

Boyce Avenue

Cifra: Principal (violão e guitarra)
Quer fazer aulas de música com a gente? Responda essas perguntas
e nos ajude nesse projeto! →
tom: D (forma dos acordes no tom de C) Capotraste na 2ª casa
Intro: C  Em  Am  F7M

Primeira Parte:

Yeah
C
  Red cups and sweaty bodies everywhere
Em
   Hands in the air like we don't care
Am
   'Cause we came to have so much fun now
F7M
    Got somebody here might get some now

C
  If you're not ready to go home
Em
   Can I get a "Hell, no!"?
Am
   'Cause we're gonna go all night
  F7M
'Til we see the sunlight, alright

Primeiro Refrão:

    C
So la da di da di

We like to party
 Em
Dancing with you and me
                   Am
Doing whatever we want
             F7M
This is our house

This is our rules

        C
And we can't stop
        Em
And we won't stop
                    Am
Can't you see it's we who own the night?
                    F7M
Can't you see it's we who 'bout that life?

        C
And we can't stop
        Em
And we won't stop
                 Am
We run things, things don't run we
            F7M
Don't take nothing from nobody

Yeah, yeah

Repete Intro: C  Em  Am  F7M

Segunda Parte:

Yeah
C
  To my home girls just try to live it up
Em
   Shaking it like they can't get enough
Am
   Remember only God can judge us
    F7M
Forget the haters 'cause somebody loves ya
C
  Memories made 'til the nights through
Em
   Surrounded by the ones who love you
Am
   We all so turned up here
 F7M
Getting turned up, yeah

Segundo Refrão:

    C
So la da di da di

We like to party
 Em
Dancing with you and me
                   Am
Doing whatever we want
             F7M
This is our house

This is our rules

        C
And we can't stop
        Em
And we won't stop
                    Am
Can't you see it's we who own the night?
                    F7M
Can't you see it's we who 'bout that life?

        C
And we can't stop
        Em
And we won't stop
         Am
We run things, things don't run we
            F7M
Don't take nothing from nobody

Yeah, yeah

Terceira Parte:

C
  It's our party we can do what we want to
Em
   It's our house we can love who we want to
Am
   It's our song we can sing if we want to
F7M
    It's my mouth I can say what I want to

Repete Intro: C  Em  Am  F7M

Terceiro Refrão:

        C
And we can't stop
        Em
And we won't stop
                    Am
Can't you see it's we who own the night?
                    F7M
Can't you see it's we who 'bout that life?
        C
And we can't stop
        Em
And we won't stop
                 Am
We run things, things don't run we
            F7M
Don't take nothing from nobody

Yeah, yeah

Parte Final:

C
  It's our party we can do what we want to
Em
   It's our house we can love who we want to
                    Am
Can't you see it's we who own the night?
                    F7M
Can't you see it's we who 'bout that life?
C
  It's our song we can sing if we want to
Em
   It's my mouth I can say what I want to
         Am
We run things, things don't run we
F7M
    'Cause we can't stop

Intro:

Parte 1 de 2

   C      Em
E|------------------------------------------|
B|-1------0---------------------------------|
G|---0------0-------------------------------|
D|-----2------2-----------------------------|
A|-3----------------------------------------|
E|--------0---------------------------------|

Parte 2 de 2

   Am     F7M
E|------------------------------------------|
B|-----1------1-----------------------------|
G|-2------2---------------------------------|
D|---2------3-------------------------------|
A|-0----------------------------------------|
E|--------1---------------------------------|

Primeira Parte:

Parte 1 de 2

   C   Em
E|--------------------------------------------|
B|-1---0--------------------------------------|
G|-0---0--------------------------------------|
D|-2---2--------------------------------------|
A|-3------------------------------------------|
E|-----0--------------------------------------|

Parte 2 de 2

   Am  F7M
E|--------------------------------------------|
B|-1---1--------------------------------------|
G|-2---2--------------------------------------|
D|-2---3--------------------------------------|
A|-0------------------------------------------|
E|-----1--------------------------------------|

Primeiro Refrão:

Parte 1 de 3

   C      Em
E|------------------------------------------|
B|-1------0---------------------------------|
G|---0------0-------------------------------|
D|-----2------2-----------------------------|
A|-3----------------------------------------|
E|--------0---------------------------------|

Parte 2 de 3

   Am     F7M
E|------------------------------------------|
B|-----1------1-----------------------------|
G|-2------2---------------------------------|
D|---2------3-------------------------------|
A|-0----------------------------------------|
E|--------1---------------------------------|

Parte 3 de 3 (2x)

   C   Em  Am  F7M
E|-----0---0---0----------------------------|
B|-1---0---1---1----------------------------|
G|-0---0---2---2----------------------------|
D|-2---2---2---3----------------------------|
A|-3---2---0---3----------------------------|
E|-----0-------1----------------------------|

Segunda Parte:

(Repete o Padrão da Primeira Parte)

(Repete Refrão)

Terceira Parte:

(Repete o Padrão da Primeira Parte)

Ritmo Terceiro Refrão:

C
↓ ↑ ↑ ↓  ↑ ↑ ↓
Em
↓ ↑ ↑ ↓  ↑ ↑ ↓
Am
↓ ↑ ↑ ↓  ↑ ↑ ↓
F7M
↓ ↑ ↑ ↓  ↑ ↑ ↓

Ritmo Parte Final:

C
↓ ↑ ↑ ↓  ↑ ↑ ↓
Em
↓ ↑ ↑ ↓  ↑ ↑ ↓
Am
↓ ↑ ↑ ↓  ↑ ↑ ↓
F7M
↓ ↑ ↑ ↓  ↑ ↑ ↓
Composição de Daniel Farris / Miley Cyrus
Colaboração e revisão:
  • deivid dias
  • Igor Ribeiro
  • Matheus Sales
66.047 exibições
    • ½ Tom
    • A
    • Bb
    • B
    • C
    • Db
    • D
    • Eb
    • E
    • F
    • F#
    • G
    • Ab
  • Adicionar à lista

    0 comentários

    Ver todos os comentários

    Conseguiu tocar?

    11 Tocaram 3 Ainda não

    Grave um vídeo tocando We Can't Stop e nos envie!

    00:00 / 00:00
    Outros vídeos desta música
    Repetir Qualidade Automático
    Outros vídeos desta música
    00:00 / 00:00
    Automático

    Cifra Club Pro

    Aproveite o Cifra Club com benefícios exclusivos e sem anúncios
    Cifra Club Pro
    Aproveite o Cifra Club com benefícios exclusivos e sem anúncios
    OK