Cifra Club

Monkey Puzzle

Brian Jonestown Massacre

Cifra: Principal (violão e guitarra)
Tom: A#
MONKEY PUZZLE

CHORDS USED (E-A-D-G-B-E)
E2 (0-7-9-9-x-x----------------|
E (7-7-9-9-9-7)----------------|
D (5-5-7-7-7-5)----------------|
A (12-12-14-14-14-12) AND (5-7-7-6-5-5)-|
C#m (4-4-6-6-5-4)--------------|
G# (4-6-6-5-4-4)---------------|
F# (2-4-4-3-2-2)---------------|

Intro: E2
       E D   E A    x4

e------------------------------------------------7--|
B-----------------------------------7-9-9-9-9-10----|
G-9-9-9-7-7-7-6-6---7-6-7-9-9-9-9-9-----------------|
D-----------------9---------------------------------|
A---------------------------------------------------|
E---------------------------------------------------|

e-7-7-7----10-12-12-12-12---------------------------|
B-------10------------------------------------------|
G---------------------------------------------------|
D---------------------------------------------------|
A---------------------------------------------------|
E---------------------------------------------------|


        E       D                E          A
Somebody help me, help me get that girl cause
           E          D             E        A
i know that i need her, i know that i need her
           E      D                   E       A
theres nobody sweeter in the whole wide world
          E       D                E      A
im dying to meet her, im dying to meet her

C#m                           G#
cause when i see her and she looks so fine
C#m                       F#
  i can't give up till i know she's mine, yeah

E D  E A  x2

            E        D                       E        A
oh lord could you help me, could you tell me her name cause
            E        D              E       A
i know that i need her, i know that i need her
            E         D               E         A
there's nobody sweeter, im dying just to be there
            E        D                E      A
i know that i need her, im dying to greet her

C#m                          G#
cause when i think about her every night
C#m                             F#
  too live without her well it wouldnt be right

e---------------------------------------------------|
B---------------------------------------------------|
G---------------------------------------------------|
D---------------------------------------------------|
A---7-9^^---7-7--------------7-9-9^^--7-9-7---------|
E-9-------------9-7-7-9--9-9------------------------|
exibições 317
Acordes para:

    0 comentários

    mostrar mais comentários

    Conseguiu tocar?

    0 tocaram 0 ainda não

    Grave um vídeo tocando Monkey Puzzle e mande pra gente!

    00:00 / 00:00
    outros vídeos desta música
    repetir qualidade Automático
    Outros vídeos desta música
    00:00 / 00:00
    Automático
    OK