Cifra Club

Aprenda

It Never Ends

Bring Me The Horizon

Cifra: Principal (violão e guitarra)
tom: E
Tuning: Drop C

. =palm-muted
~ =hold note
^ =vibrato
b =bend
r =release
p =pull off
h =hammer on


"""Intro I"""
Guitar 1
E|---------------------------------------------------------------|
B|---------------------------------------------------------------|
G|---------------------------------------------------------------|
D|---------------------------------------------------------------|
A|---10-10-10-10-10-10-10-10--10-10-10-10-10-10-10-10------------|
E|---10-10-10-10-10-10-10-10--10-10-10-10-10-10-10-10------------|


"""Intro II"""        0:02
Guitar 1     (u cant really here it, but I 100% sure its there!)
E|----------------------------------------------------------------------------|
B|----------------------------------------------------------------------------|
G|----------------------------------------------------------------------------|
D|--(12-12-12-12-12-12-12-12)(12-12-12-12-12-12-12-12)----12-12-12-12-12-12---|
A|---12-12-12-12-12-12-12-12--12-12-12-12-12-12-12-12-----12-12-12-12-12-12---|
E|---12-12-12-12-12-12-12-12--12-12-12-12-12-12-12-12-----12-12-12-12-12-12---|

E|---------------------------------------------------------------------|
B|---------------------------------------------------------------------|
G|---------------------------------------------------------------------|
D|--(10-10-10-10-10-10-10-10)--(8-8-8-8---8-8-8--8-8-8---8-8-8-8)------|
A|---10-10-10-10-10-10-10-10----8-8-8-8---8-8-8--8-8-8---8-8-8-8-------|
E|---10-10-10-10-10-10-10-10----8-8-8-8---8-8-8--8-8-8---8-8-8-8-------|

E|------------------------------------------------------|
B|------------------------------------------------------|
G|------------------------------------------------------|
D|--(8-8-8-8-8-8-8)--10~--10~--10-10-10-----------------|
A|---8-8-8-8-8-8-8---10~--10~--10-10-10-----------------|
E|---8-8-8-8-8-8-8---10~--10~--10-10-10-----------------|

E|----------------------------------------------------------------------------|
B|----------------------------------------------------------------------------|
G|----------------------------------------------------------------------------|
D|--(12-12-12-12-12-12-12-12)(12-12-12-12-12-12-12-12)----12-12-12-12-12-12---|
A|---12-12-12-12-12-12-12-12--12-12-12-12-12-12-12-12-----12-12-12-12-12-12---|
E|---12-12-12-12-12-12-12-12--12-12-12-12-12-12-12-12-----12-12-12-12-12-12---|

E|-------------------------------------------------------------|
B|-------------------------------------------------------------|
G|-------------------------------------------------------------|
D|--(10~--10~--10~)----(8-8-8-8---8-8-8--8-8-8---8-8-8-8)------|
A|---10~--10~--10~------8-8-8-8---8-8-8--8-8-8---8-8-8-8-------|
E|---10~--10~--10~------8-8-8-8---8-8-8--8-8-8---8-8-8-8-------|

E|-------------------------------------------------|
B|-------------------------------------------------|
G|-------------------------------------------------|
D|--(8-8-8-8-8-8-8)--10--10--10-10-10--------------|
A|---8-8-8-8-8-8-8---10--10--10-10-10--------------|
E|---8-8-8-8-8-8-8---10--10--10-10-10--------------|

Guitar 2    i'll name 10 as a "t" cuz otherwise this would be endless...
E|--------------------------------------------------------------------------|
B|--------------------------------------------------------------------------|
G|---t-t-t-t-t-t-t-t--t-t-t-t-t-t-t-t-----t-t-t-t-t-t---9-9-9-9-9-9-9-9-----|
D|---x-x-x-x-x-x-x-x--x-x-x-x-x-x-x-x-----x-x-x-x-x-x---x-x-x-x-x-x-x-x-----|
A|---8-8-8-8-8-8-8-8--8-8-8-8-8-8-8-8-----8-8-8-8-8-8---7-7-7-7-7-7-7-7-----|
E|--------------------------------------------------------------------------|

E|-------------------------------------------------------------------------|
B|-------------------------------------------------------------------------|
G|---9-9-9-9---7-7-7-7-7-7---9-9-9-9----7-7-7-7-7-7-7---9~--9~--9-9-9------|
D|---x-x-x-x---x-x-x-x-x-x---x-x-x-x----x-x-x-x-x-x-x---x---x---x-x-x------|
A|---7-7-7-7---5-5-5-5-5-5---7-7-7-7----5-5-5-5-5-5-5---7~--7~--7-7-7------|
E|-------------------------------------------------------------------------|

E|-----------------------------------------------------------------------|
B|-----------------------------------------------------------------------|
G|---t-t-t-t-t-t-t-t--t-t-t-t-t-t-t-t-----t-t-t-t-t-t---9~--9~--9~-------|
D|---x-x-x-x-x-x-x-x--x-x-x-x-x-x-x-x-----x-x-x-x-x-x---x---x---x--------|
A|---8-8-8-8-8-8-8-8--8-8-8-8-8-8-8-8-----8-8-8-8-8-8---7~--7~--7~-------|
E|-----------------------------------------------------------------------|

E|-------------------------------------------------------------------------|
B|-------------------------------------------------------------------------|
G|---9-9-9-9---7-7-7-7-7-7---9-9-9-9----7-7-7-7-7-7-7---9~--9~--9-9-9------|
D|---x-x-x-x---x-x-x-x-x-x---x-x-x-x----x-x-x-x-x-x-x---x---x---x-x-x------|
A|---7-7-7-7---5-5-5-5-5-5---7-7-7-7----5-5-5-5-5-5-5---7~--7~--7-7-7------|
E|-------------------------------------------------------------------------|

Guitar 3 (additional, fucked up sound)
E|--------------------------------------------------------------------------|
B|---6-6-6-6-6-6-6-6--6-6-6-6-6-6-6-6-----6-6-6-6-6-6---5-5-5-5-5-5-5-5-----|
G|---5-5-5-5-5-5-5-5--5-5-5-5-5-5-5-5-----5-5-5-5-5-5---5-5-5-5-5-5-5-5-----|
D|---3-3-3-3-3-3-3-3--3-3-3-3-3-3-3-3-----3-3-3-3-3-3---3-3-3-3-3-3-3-3-----|
A|--------------------------------------------------------------------------|
E|--------------------------------------------------------------------------|

E|---------------------------------------------------------------------------|
B|---5-5-5-5---3-3-3-3-3-3---5-5-5-5----3-3-3-3-3-3-3---5~--5~--5-5-5--------|
G|---3-3-3-3---3-3-3-3-3-3---3-3-3-3----3-3-3-3-3-3-3---5~--5~--5-5-5--------|
D|---3-3-3-3---3-3-3-3-3-3---3-3-3-3----3-3-3-3-3-3-3---5~--5~--5-5-5--------|
A|---------------------------------------------------------------------------|
E|---------------------------------------------------------------------------|

E|----------------------------------------------------------------------|
B|---6-6-6-6-6-6-6-6--6-6-6-6-6-6-6-6-----6-6-6-6-6-6---5~--5~--5~------|
G|---5-5-5-5-5-5-5-5--5-5-5-5-5-5-5-5-----5-5-5-5-5-5---5~--5~--5~------|
D|---3-3-3-3-3-3-3-3--3-3-3-3-3-3-3-3-----3-3-3-3-3-3---3~--3~--3~------|
A|----------------------------------------------------------------------|
E|----------------------------------------------------------------------|

E|---------------------------------------------------------------------------|
B|---5-5-5-5---3-3-3-3-3-3---5-5-5-5----3-3-3-3-3-3-3---5~--5~--5-5-5--------|
G|---3-3-3-3---3-3-3-3-3-3---3-3-3-3----3-3-3-3-3-3-3---5~--5~--5-5-5--------|
D|---3-3-3-3---3-3-3-3-3-3---3-3-3-3----3-3-3-3-3-3-3---5~--5~--5-5-5--------|
A|---------------------------------------------------------------------------|
E|---------------------------------------------------------------------------|

"""Intro III"""     0:20
E|---------------------------------------------------------|
B|---------------------------------------------------------|
G|---------------------------------------------------------|
D|---------------------------------------------------------|
A|---------------------------------------------------------|
E|---12-12-12-12-12-12-12-12--12-12-12-12-12-12-12-10------|

E|---------------------------------------------------------|
B|---------------------------------------------------------|
G|---------------------------------------------------------|
D|---------------------------------------------------------|
A|----------------------------10-10-10-10-10-10-10-10-10---|
E|---12-12-12-12-12-12-12-12--10-10-10-10-10-10-10-10-10---|

E|---------------------------------------------------------|
B|---------------------------------------------------------|
G|---------------------------------------------------------|
D|---------------------------------------------------------|
A|---8-8-8-8-8-8-8-7-x3----10~--10~--10~--10~--------------|
E|---8-8-8-8-8-8-8-7-------10~--10~--10~--10~--------------|

E|---------------------------------------------------------------------------|
B|---------------------------------------------------------------------------|
G|----------------------10-10-10-10----------------9-9-9-9-9-9-9-9--9-9-9-9--|
D|----------------------x--x--x--x-----------------x-x-x-x-x-x-x-x--x-x-x-x--|
A|----0000--0000--000---8--8--8--8-----0---0---0---7-7-7-7-7-7-7-7--7-7-7-7--|
E|----0000--0000--000------------------0---0---0-----------------------------|
     ....  ....  ...                  .   .   .

                             [ Left Speaker (L) ]
E|---------------------------------------------------------|
B|---------------------------------------------------------|
G|---------------------------------------------------------|
D|---------------------------------------------------------|  (Slow Down used,
A|-----8-8-8-8-8-8-8-8-x3------5p0--7p0--8p0---3~----------|   100% sure!)
E|-----8-8-8-8-8-8-8-8-------------------------------------|



"""Verse"""       0:38
Guitar 1
E|----17~-----15~--20~--------------15~-----------|
B|----------------------18~-----17~---------------|
G|------------------------------------------------|
D|------------------------------------------------|
A|------------------------------------------------|
E|------------------------------------------------|

E|----17~-----15~--20~---18~--------15~-----------|
B|------------------------------------------------|
G|------------------------------------------------|
D|------------------------------------------------|
A|------------------------------------------------|
E|------------------------------------------------|

 Guitar 2     starts at the last 15 on the E string
E|-------------------------------------------|
B|-------------------------------------------|
G|-------------------------------------------|
D|-------------------------------------------|
A|----8-8-8-8-8-8-8-8--8-8-8-8-8-8-8-8-------|
E|----8-8-8-8-8-8-8-8--8-8-8-8-8-8-8-8-------|



"""Interlude I"""      0:57
Guitar 1     Fast-Picking on this one
E|----17-x16---15-x8---13-x8------17-x16----15-x8----18-x8-----|
B|-------------------------------------------------------------|
G|-------------------------------------------------------------|
D|-------------------------------------------------------------|
A|-------------------------------------------------------------|
E|-------------------------------------------------------------|

E|----17-x16----15-x8----13-x8-------17-x16-----20-x-16--------|
B|-------------------------------------------------------------|
G|-------------------------------------------------------------|
D|-------------------------------------------------------------|
A|-------------------------------------------------------------|
E|-------------------------------------------------------------|

Guitar 2
E|---------------------------------------------------------|
B|---------------------------------------------------------|
G|---------------------------------------------------------|
D|---------------------------------------------------------|
A|---12-12-12-12-12-12-12-12--12-12-12-12-12-10-10-10------|
E|---12-12-12-12-12-12-12-12--12-12-12-12-12-10-10-10------|

E|---------------------------------------------------------|
B|---------------------------------------------------------|
G|---------------------------------------------------------|
D|---------------------------------------------------------|
A|---8-8-8-8-8-8-8-8--8-8-8-8-8-10-10-10-------------------|
E|---8-8-8-8-8-8-8-8--8-8-8-8-8-10-10-10-------------------|



"""Pre-Chorus"""     1:15
Guitar 1
E|---------------------------------------------------------------------|
B|---------------------------------------------------------------------|
G|---------------------------------------------------------------------|
D|---5-5-5-5-5-5-5-5-------8-8-8-8-8-8-8-8--8-8-8-8-8-8----------------|
A|---5-5-5-5-5-5-5-5--x2---8-8-8-8-8-8-8-8--8-8-8-8-8-8--------8-------|
E|---5-5-5-5-5-5-5-5-------8-8-8-8-8-8-8-8--8-8-8-8-8-8--10h12---------|

       *
E|--------------------------------------------------------------|
B|--------------------------------------------------------------|
G|--------------------------------------------------------------|
D|---12-12-12-12-12-12-12-12--12-12-12-12-12-12-----------------|
A|---12-12-12-12-12-12-12-12--12-12-12-12-12-12--------8--------|
E|---12-12-12-12-12-12-12-12--12-12-12-12-12-12--10h12----------|

E|----------------------------------------------------------------------------|
B|----------------------------------------------------------------------------|
G|----------------------------------------------------------------------------|
D|---10-10-10-10-10-10-10-10--------5--5--5--5--5--5--5--5---8-8-8-8-8-8-8-8--|
A|---10-10-10-10-10-10-10-10--x2----5--5--5--5--5--5--5--5---8-8-8-8-8-8-8-8--|
E|---10-10-10-10-10-10-10-10--------5--5--5--5--5--5--5--5---8-8-8-8-8-8-8-8--|

Guitar 2    starts at the *
E|---------------------------------------------------------|
B|---------------------------------------------------------|
G|---------------------------------------------------------|
D|---------------------------------------------------------|
A|---5h8p5h8p5h8p5h8p5...-----4h7p4h7p4h7p4h7p4...---------|
E|---------------------------------------------------------|



"""Chorus"""    1:29    kinda funny their songs now have a chorus...
U need some sort of strumming for this but im too tired to figure it out now.
Sorry...
E|---------------------------------------------------------------------------|
B|---------------------------------------------------------------------------|
G|---------------------------------------------------------------------------|
D|---12---------15--------10---------8----------10~---10---------------------|
A|---12--x16----15--x8----10--x8-----8--x24-----10~---10--(8)-8p7-(or 8p5)---|
E|---12---------15--------10---------8----------10~---10---------------------|
                                                    (.)

"""Post-Chorus/Pre-Breakdown"""        1:47
E|------------------------------------------------------------------------|
B|------------------------------------------------------------------------|
G|------------------------------------------------------------------------|
D|---8~---8~-8~-------5~--10--7----7~--10--7-----8~---8~-8~----5~---------|
A|---8~---8~-8~-------5~-----------7~------------8~---8~-8~----5~---------|
E|---8~---8~-8~-------5~-----------7~------------8~---8~-8~----5~---------|



"""Breakdown I"""       1:56
U have to think of this part being tabbed "half-time"... so its all played very fast...
is the EXACT timing!
                        [         Left Speaker         ]      *
E|------------------------------------------------------------------------|
B|------------------------------------------------------------------------|
G|-------------------------10-10-10-10-10-10-10-10-10-10------------------|
D|-------------------------x--x--x--x--x--x--x--x--x--x-------------------|
A|--000-0---000-0---000----8--8--8--8--8--8--8--8--8--8--------000-000----|
E|--000-0---000-0---000----------------------------------------000-000----|
   ... .   ... .   ...                                        ... ...

the * is played with the snare right before the next boom ;D   1:59


Guitar 1        2:01                                [fast picking on those]
E|-------------------------------------------------------------------------|
B|-------------------------------------------------------------------------|
G|-------------------------------------------------------------------------|
D|-------------------------------------------------------------------------|
A|---000-000---0---0---0---0-000-000--000-000---0-000--(12)-----(10)-------|
E|---000-000---0---0---0---0-000-000--000-000---0-000---12-x8----10 x8-----|
    ... ...   .   .   .   . ... ...  ... ...   . ...  (.)      (.)

                  L  R    L R                        *
E|---------------------------------------------------------------------|
B|---------------------------------------------------------------------|
G|---------------------------------------------------------------------|
D|-----0~---0------------------------------------12~--12~--OOOOOOHHH--|
A|---0-0~---0------0--0----0-0-0-----000-000--0--10~--10~-------------|
E|---0-0~---0------0--0----0-0-0-----000-000--0--10~--10~-------------|
    .                               ... ...  .

Guitar 2  at the *
E|-----------------------|
B|----5~--5~-------------|
G|----5~--5~-------------|
D|----3~--3~-------------|
A|-----------------------|
E|-----------------------|

"""Breakdown II"""    2:10                          [fast picking on those]
E|-------------------------------------------------------------------------|
B|-------------------------------------------------------------------------|
G|-------------------------------------------------------------------------|
D|-------------------------------------------------------------------------|
A|---000-000---0---0---0---0-000-000--000-000---0-0-0--(12)-----(10)-------|
E|---000-000---0---0---0---0-000-000--000-000---0-0-0---12-x8----10 x8-----|
    ... ...   .   .   .   . ... ...  ... ...   . . .  (.)      (.)

                        L   R                               *
E|---------------------------------------------------------------------------|
B|---------------------------------------------------------------------------|
G|---------------------------------------------------------------------------|
D|-----------------------------------------------------------12~--12~--12~--|
A|--0--00-0-0-0-0--------0---0-----0-0-0--000--000---0-0-0---10~--10~--10~--|
E|--0--00-0-0-0-0--------0---0-----0-0-0--000--000---0-0-0---10~--10~--10~--|
   .                                     ...  ...

Guitar 2  at the *
E|-----------------------|
B|----5~--5~--5~---------|
G|----5~--5~--5~---------|
D|----3~--3~--3~---------|
A|-----------------------|
E|-----------------------|

"""Breakdown III"""      2:19              [  Off the beat  ]
E|-----------------------------------------------------------------|
B|-----------------------------------------------------------------|
G|-----------------------------------------------------------------|
D|----8~-----------------------------------------------------------|
A|----8~-----000-000-000-000--0-0-0-0-0-0-0-0-0--0--0--0--0--0-----|
E|----8~-----000-000-000-000--0-0-0-0-0-0-0-0-0--0--0--0--0--0-----|
            ... ... ... ...  . . . . . . . . .  .  .  .  .  .
                                                      [fast picking on those]
E|---------------------------------------------------------------------------|
B|---------------------------------------------------------------------------|
G|---------------------------------------------------------------------------|
D|---------------------------------------------------------------------------|
A|---0-0-0-0-0-0-0-0--000-000-000-000--0-0-0-0-0-0-0-0--(12)--(5)-----(10)---|
E|---0-0-0-0-0-0-0-0--000-000-000-000--0-0-0-0-0-0-0-0---12-or-0--x8---10--x8|
    . . . . . . . .  ... ... ... ...  . . . . . . . .

"""Interlude II"""      2:30
E|---------------------------------------------------------|
B|---------------------------------------------------------|
G|---------------------------------------------------------|
D|---------------------------------------------------------|
A|---------------------------------------------------------|
E|---12-12-12-12-12-12-12-12--12-12-12-12-12-12-12-10------|

E|-----------------------------------------------------------|
B|-----------------------------------------------------------|
G|-----------------------------------------------------------|
D|-----------------------------------------------------------|
A|----------------------------10-10-10-10-10-10-10-10--------|
E|---12-12-12-12-12-12-12-12--10-10-10-10-10-10-10-10--------|

E|---------------------------------------------------------|
B|---------------------------------------------------------|
G|---------------------------------------------------------|
D|---------------------------------------------------------|
A|---8-8-8-8-8-8-8-7-x3----10-10-10-10-10-10-10-10---------|
E|---8-8-8-8-8-8-8-7-------10-10-10-10-10-10-10-10---------|



"""Something like a verse..."""    2:48
Guitar 1
E|---------------------------------------------------------------------------|
B|---------------------------------------------------------------------------|
G|---------------------------------------------------------------------------|
D|----5-5-5-5-5-5-5-5--------8-8-8-8-8-8-8-8----------0-0-0-0-0-0-0-0--------|
A|----5-5-5-5-5-5-5-5--x3----8-8-8-8-8-8-8-8----------0-0-0-0-0-0-0-0---x2---|
E|----5-5-5-5-5-5-5-5--------8-8-8-8-8-8-8-8----------0-0-0-0-0-0-0-0--------|

E|------------------------------------------------------------------|
B|------------------------------------------------------------------|
G|------------------------------------------------------------------|
D|---10-10-10-10-10-10-10-10--------5-5-5-5-5-5-5-5--------8~-------|
A|---10-10-10-10-10-10-10-10--x2----5-5-5-5-5-5-5-5--x2----8~-------|
E|---10-10-10-10-10-10-10-10--------5-5-5-5-5-5-5-5--------8~-------|

Guitar 2     fast/sweap picking on all the notes (dunno what to call it...)
E|----17-x16-----------13-x8-------------------------------------17-x16-------|
B|-------------15-x8--------------10-x8---11-x8---13-x8------------------15~--|
G|-------------------------------------------------------9-x8-----------------|
D|----------------------------------------------------------------------------|
A|----------------------------------------------------------------------------|
E|----------------------------------------------------------------------------|

"""Interlude III"""    3:02
E|--------------------------------------------------------------------------|
B|--------------------------------------------------------------------------|
G|--------------------------------------------------------------------------|
D|--------------------------------------------------------------------------|
A|---------8----8----8--8--8--8--8--8--8-----------8----7----7--7--7--7-----|
E|---10h12------12---12-12-12-12-12-12-12----10h12------10---10-10-10-10----|

"""Chorus"""     3:07
E|-------------------------------------------------------------------------|
B|-------------------------------------------------------------------------|
G|-------------------------------------------------------------------------|
D|---12---------15--------10---------8----------10~---10-------------------|
A|---12--x16----15--x8----10--x8-----8--x24-----10~---10---(8)-8p7---------|
E|---12---------15--------10---------8----------10~---10-------------------|
                                                    (.)

E|----------------------------------------------|
B|----------------------------------------------|
G|----------------------------------------------|
D|---12---------15--------10---------8----------|
A|---12--x16----15--x8----10--x8-----8--x16-----|
E|---12---------15--------10---------8----------|

E|----------------------------------------------------------------------------|
B|----------------------------------------------------------------------------|
G|----------------------------------------------------------------------------|
D|---5~--10--7----7~--10--7-----8~-----------------------5~--10--7----7-7--7~-|
A|---5~---------5-7~----------7-8~--8-8-8-8-8-8-8-8-x2---5~---------5-7-7--7~-|
E|---5~---------5-7~----------7-8~--8-8-8-8-8-8-8-8------5~---------5-7-7--7~-|



"""Silence Thing"""       3:30
Theres acutally nothing to play... but theres a clean guitar that play 2
notes with some effects in the background...
E|-----------------------------------|
B|-----6~------------5~--------------|
G|----(5~)----------(5~)-------------|
D|-----------------------------------|
A|-----------------------------------|
E|-----------------------------------|



"""Outro-Chorus"""    3:48
Guitar 1
E|---------------------------------------------------------------------------|
B|---------------------------------------------------------------------------|
G|---------------------------------------------------------------------------|
D|---------------------------------------------------------------------------|
A|---8-8-8-8--8-8-8-8-8-8-8-8---8-8-8-8--8-8-8-8-8-8-8---10~--10~--10~-------|
E|---8-8-8-8--8-8-8-8-8-8-8-8---8-8-8-8--8-8-8-8-8-8-8---10~--10~--10~-------|

E|---------------------------------------------------------------------------|
B|---------------------------------------------------------------------------|
G|---------------------------------------------------------------------------|
D|---------------------------------------------------------------------------|
A|---12-12-12-12--12-12-12-12-12-12-12-12-12-12-12---12-12-12-12-12-12-12----|
E|---12-12-12-12--12-12-12-12-12-12-12-12-12-12-12---12-12-12-12-12-12-12----|

E|-----------------------------|
B|-----------------------------|
G|-----------------------------|
D|-----------------------------|
A|---10~--10~--10-10-10--------|
E|---10~--10~--10-10-10--------|

E|------------------------------------------------------------------|
B|------------------------------------------------------------------|
G|------------------------------------------------------------------|
D|------------------------------------------------------------------|
A|---8-8-8-8--8-8-8-8-8-8-8-8---8-8-8-8--8-8-8-8-8-8-8---10~--------|
E|---8-8-8-8--8-8-8-8-8-8-8-8---8-8-8-8--8-8-8-8-8-8-8---10~--------|

E|---------------------------------------------------------------------------|
B|---------------------------------------------------------------------------|
G|---------------------------------------------------------------------------|
D|---------------------------------------------------------------------------|
A|---12-12-12-12--12-12-12-12-12-12-12-12-12-12-12---12-12-12-12-12-12-12----|
E|---12-12-12-12--12-12-12-12-12-12-12-12-12-12-12---12-12-12-12-12-12-12----|

E|-----------------------------|
B|-----------------------------|
G|-----------------------------|
D|-----------------------------|
A|---10~--10~--10-10-10--------|
E|---10~--10~--10-10-10--------|

E|---------------------------------------------------------------------------|
B|---------------------------------------------------------------------------|
G|---------------------------------------------------------------------------|
D|---------------------------------------------------------------------------|
A|---8-8-8-8--8-8-8-8-8-8-8-8---8-8-8-8--8-8-8-8-8-8-8---10~--10~--10~-------|
E|---8-8-8-8--8-8-8-8-8-8-8-8---8-8-8-8--8-8-8-8-8-8-8---10~--10~--10~-------|

E|---------------------------------------------------------------------------|
B|---------------------------------------------------------------------------|
G|---------------------------------------------------------------------------|
D|---------------------------------------------------------------------------|
A|---12-12-12-12--12-12-12-12-12-12-12-12-12-12-12---12-12-12-12-12-12-12----|
E|---12-12-12-12--12-12-12-12-12-12-12-12-12-12-12---12-12-12-12-12-12-12----|

E|-----------------------------|
B|-----------------------------|
G|-----------------------------|
D|-----------------------------|
A|---10~--10~--10-10-10--------|
E|---10~--10~--10-10-10--------|

E|---------------------------------------------------------------------------|
B|---------------------------------------------------------------------------|
G|---------------------------------------------------------------------------|
D|---------------------------------------------------------------------------|
A|---8-8-8-8--8-8-8-8-8-8-8-8---8-8-8-8--8-8-8-8-8-8-8---10~--10~--10~--fade-|
E|---8-8-8-8--8-8-8-8-8-8-8-8---8-8-8-8--8-8-8-8-8-8-8---10~--10~--10~--out--|

Guitar 2    For the difference in the strumming look above (guitar 1)
E|------------------------------------------------------------------------|
B|------------------------------------------------------------------------|
G|---9-9-7-7---7-7-7-7-7-7-7-9-9-7-7----7-7-7-7-7-7-7---9~--9~--9~--------|
D|---x-x-x-x---x-x-x-x-x-x-x-x-x-x-x----x-x-x-x-x-x-x---x~--x~--x~--------|
A|---7-7-5-5---5-5-5-5-5-5-5-7-7-5-5----5-5-5-5-5-5-5---7~--7~--7~--------|
E|------------------------------------------------------------------------|

E|-----------------------------------------------------------------------------|
B|-----------------------------------------------------------------------------|
G|---10-10-10-10--10-10-10-10-10-10-10-10-10-10-10--9-9-9-9-9-9-9---9~--9~-999-|
D|---x--x--x--x---x--x--x--x--x--x--x--x--x--x--x---x-x-x-x-x-x-x---x~--x~-xxx-|
A|---8--8--8--8---8--8--8--8--8--8--8--8--8--8--8---7-7-7-7-7-7-7---7~--7~-777-|
E|-----------------------------------------------------------------------------|

Guitar 3     ADDITIONAL!     For the whole strumming look above (guitar 1)
E|------------------------------------------------------------------------|
B|---5-5-3-3---3-3-3-3-3-3-3-5-5-3-3---3-3-3-3-3-3-3---5~--5~--5~---------|
G|---3-3-3-3---3-3-3-3-3-3-3-3-3-3-3---3-3-3-3-3-3-3---5~--5~--5~---------|
D|---3-3-3-3---3-3-3-3-3-3-3-3-3-3-3---3-3-3-3-3-3-3---3~--3~--3~---------|
A|------------------------------------------------------------------------|
E|------------------------------------------------------------------------|

E|-------------------------------------------------------------------------|
B|---6-6-6-6---6-6-6-6-6-6-6-6-6-6-6---5-5-5-5-5-5-5----5~--5~--5-5-5------|
G|---5-5-5-5---5-5-5-5-5-5-5-5-5-5-5---5-5-5-5-5-5-5----5~--5~--5-5-5------|
D|---3-3-3-3---3-3-3-3-3-3-3-3-3-3-3---3-3-3-3-3-3-3----3~--3~--3-3-3------|
A|-------------------------------------------------------------------------|
E|-------------------------------------------------------------------------|
Composição de Bring Me the Horizon / Oliver Sykes
Colaboração e revisão:
  • Luis Gustavo
3.963 exibições
    • ½ Tom
    • A
    • Bb
    • B
    • C
    • Db
    • D
    • Eb
    • E
    • F
    • F#
    • G
    • Ab
  • Adicionar à lista

    0 comentários

    Ver todos os comentários

    Conseguiu tocar?

    0 Tocaram 1 Ainda não

    Grave um vídeo tocando It Never Ends e nos envie!

    00:00 / 00:00
    Outros vídeos desta música
    Repetir Qualidade Automático
    Outros vídeos desta música
    00:00 / 00:00
    Automático

    Cifra Club Pro

    Aproveite o Cifra Club com benefícios exclusivos e sem anúncios
    Cifra Club Pro
    Aproveite o Cifra Club com benefícios exclusivos e sem anúncios
    OK