Cifra Club

Whirlwind

Broder Daniel

Cifra: Principal (violão e guitarra)
tom: A
Whirlwind - Broder Daniel  

Intro.:  F#m  E

e:------2222-----------------------------------
B:-----------2222------------5555-----------2--
G:----------------4-2-------------4444--2-4----
D:--4444----------------2222-------------------
A:---------------------------------------------
E:---------------------------------------------

F#m               E
the only one I love
E                F#m
she was a superstar
F#m               E
the only one I love
E                 A
she was a superstar
A                 E
the only one I love
E                F#m
she was a superstar
F#m    E
aaah

e----9---7---5---7---9-------7--5---4--5--7----
B----------------------------------------------
G----------------------------------------------
D----------------------------------------------
A----------------------------------------------
E----------------------------------------------

F#m                              E
I dream a dream that can't come true 
E                    F#m
I can never be with her
F#m                              E
I dream a dream that can't come true
E
oooh
A                E
the only one I love
E                F#m
she was a superstar
F#m      E
aaah

A                   E
If I was as whirlwind
E                       F#m
I could sweep her heart away
F#m          E
yeah yeah yeah

e----9---7---5---7---9-------7--5---4--5--7-------
B-------------------------------------------------
G-------------------------------------------------
D-------------------------------------------------
A-------------------------------------------------
E-------------------------------------------------

F#m            E   
oooh     I     am
E          F#m
a weak heart
F#m            E
I am a weak heart
E                   A
a weak heart to break
A                     E
and a lost love to take
E                F#m
a lost love to take
F#m       E
aaah

A              E
I was a whirlwind
E                        F#m
and she, she was a superstar
F#m        E
ah ah ah ah ah

(solo)

A                 E
the only one I love
E                 F#m
the only one I love
F#m     E
aaah

A     E     F#m     E
Yuhhhh

A
00:00 / 00:00
Outros vídeos desta música
Repetir
Outros vídeos desta música
Composição de Broder Daniel
Colaboração e revisão:
  • Kotoko
900 exibições
    • ½ Tom
    • A
    • Bb
    • B
    • C
    • Db
    • D
    • Eb
    • E
    • F
    • F#
    • G
    • Ab
  • Adicionar à lista

    0 comentários

    Ver todos os comentários

    Conseguiu tocar?

    0 Tocaram 0 Ainda não

    Grave um vídeo tocando Whirlwind e nos envie!

    00:00 / 00:00

    Cifra Club Pro

    Aproveite o Cifra Club com benefícios exclusivos e sem anúncios
    Cifra Club Pro
    Aproveite o Cifra Club com benefícios exclusivos e sem anúncios
    OK