Cifra Club

Aprenda

Je Suis Pret

Brooke Fraser

Cifra: Principal (violão e guitarra)
tom: G
intro:
     Am

E|--------------------------------------------------------|
B|------1------1-------1-------1-----1-----1-----1-----1--|
G|---2------2--------2------2-----0------0----0-----0-----|
D|--------------------------------------------------------|
A|--------------------------------------------------------|
E|--------------------------------------------------------|

E|------------------------------------------------------------|
B|------1-------1-------1-------1-------1------1----1------1--|
G|------------------------------------------------------------|
D|---4-----4-------4---------4------0------0-----0-----0------|
A|------------------------------------------------------------|
E|------------------------------------------------------------|



I looked away while the water was receding
I looked away for a second, for a second
And it's gone, everyone was caught sleeping


E|--------------------------------------------------------|
B|------1------1-------1-------1-----1-----1-----1-----1--|
G|---2------2--------2------2-----0------0----0-----0-----|
D|--------------------------------------------------------|
A|--------------------------------------------------------|
E|--------------------------------------------------------|

E|------------------------------------------------------------|
B|------1-------1-------1-------1-------1------1----1------1--|
G|------------------------------------------------------------|
D|---4-----4-------4---------4------0------0-----0-----0------|
A|------------------------------------------------------------|
E|------------------------------------------------------------|



I am awake and the air is pulsating
I am awake, as it gathers, see it growing
I'm in doubt, here it comes, am I ready?
Am I ready?



E|--------------------------------------------------------|
B|------1------1-------1-------1-----1-----1-----1-----1--|
G|---2------2--------2------2-----0------0----0-----0-----|
D|--------------------------------------------------------|
A|--------------------------------------------------------|
E|--------------------------------------------------------|

E|------------------------------------------------------------|
B|------1-------1-------1-------1-------1------1----1------1--|
G|------------------------------------------------------------|
D|---4-----4-------4---------4------0------0-----0-----0------|
A|------------------------------------------------------------|
E|------------------------------------------------------------|


       Am                   Am7

See the tempest looking my way

           D                  F
Drain the skies of all their color

       Am          Am7
And I need eye to eye

       D           F
With a fire in my breast

         Am     Am7
Je suis pret

      D           F
I am ready, I am ready
        Am     Am7
Je suis pret
        D         F
I am ready, I am ready


E|--------------------------------------------------------|
B|------1------1-------1-------1-----1-----1-----1-----1--|
G|---2------2--------2------2-----0------0----0-----0-----|
D|--------------------------------------------------------|
A|--------------------------------------------------------|
E|--------------------------------------------------------|

E|------------------------------------------------------------|
B|------1-------1-------1-------1-------1------1----1------1--|
G|------------------------------------------------------------|
D|---4-----4-------4---------4------0------0-----0-----0------|
A|------------------------------------------------------------|
E|------------------------------------------------------------|

I will be healed, and my brother, so shall you be
Stand over here, by my side
We will awake to the river, to the river
Washing away all our shy


         Am                Am7
See the tempest looking my way
           D                  F
Drain the skies of all their color
       Am         Am7
And I need eye to eye
        D          F
With a fire in my breast
         Am    Am7

Je suis pret
       D          F
I am ready, I am ready

       Am      Am7
Je suis pret
      D           F
I am ready, I am ready

Repeat Introdution 

Wash away
Wash away
Wash away
Wash away

         Am                Am7
See the tempest looking my way
           D                   F
Drain the skies of all their color
       Am           Am7
And we need eye to eye
        D              F
With a fire in our my breast
             Am    Am7
Nous sommes prêts
         D             F
We are ready, we are ready
             Am     Am7
Nous sommes prêts
       D              F
We are ready, we are ready
Composição de Brooke Fraser
Colaboração e revisão:
  • Beatriz Lima
94 exibições
    • ½ Tom
    • A
    • Bb
    • B
    • C
    • Db
    • D
    • Eb
    • E
    • F
    • F#
    • G
    • Ab
  • Adicionar à lista

    0 comentários

    Ver todos os comentários
    00:00 / 00:00
    Outros vídeos desta música
    Repetir Qualidade Automático
    Outros vídeos desta música
    00:00 / 00:00
    Automático

    Cifra Club Pro

    Aproveite o Cifra Club com benefícios exclusivos e sem anúncios
    Cifra Club Pro
    Aproveite o Cifra Club com benefícios exclusivos e sem anúncios
    OK