Notificações Amigos pendentes

      Bruce Dickinson

      The Alchemist

      1.910 exibições
      Tom: G
      
      -------------------------------|-----------------|------------------|---------
      -------------------------------|-----------------|------------------|---------
      -9--9-9--9--9-9--9-------------|----------9------|-----5------3--9--|---------
      -9--9-9--9--9-9--9-------------|---7\5-5--9------|-5-5-5--5-5-3--9--|---------
      -7--7-7--7--7-7--7-------------|---7\5-5--7------|-5-5-3--5-5-1--7--|---------
      ----x-x-----x-x----x-x-x-x-x-x-|---5\3-3---------|-3-3----3-3-------|---------
      
      
       Intro (with phaser and reverb)    (ending)
      
      
      ----------------------------------|-----------------------------------|-------
      ----------------------------------|-----------------------------------|-------
      -9--9-9--9--9-9--9--9-9--9/11-11--|-9--9-9--9--9-9--9--9-9------------|-------
      -9--9-9--9--9-9--9--9-9--9/11-11--|-9--9-9--9--9-9--9--9-9--9-7-------|-------
      -7--7-7--7--7-7--7--7-7--7/9--9---|-7--7-7--7--7-7--7--7-7------10-9--|-------
      ----x-x-----x-x-----x-x-----------|----x-x-----x-x-----x-x------------|-------
      
      
       Verse (1st part 3x)                (2nd part on 4th time)
      
      
      ------------------|------------------|-------------------------------|--------
      ------------------|------------------|----------------8-7------------|--------
      -5---4---9---7-9--|-5---4---9---7-9--|-5---4---9---7------9-7--5--4--|--------
      -5---4---9---7-9--|-5---4---9---7-9--|-5---4---9---7-----------5--4--|--------
      -3---2---7---5-7--|-3---2---7---5-7--|-3---2---7---5-----------3--2--|--------
      ------------------|------------------|-------------------------------|--------
      
      
       Chorus (2x)                           (ending on 2nd time)
      
      
      -----------------------------|--------------------------|---------------------
      -----------------------------|--------------------------|---------------------
      -------2---------------------|-------2------------------|---------------------
      -2-4-5---5-4-2-4-------0-2-4-|-2-4-5---5-4-2-5-------0--|---------------------
      -----------------0-1-2-------|-----------------0-1-2----|---------------------
      -----------------------------|--------------------------|---------------------
      
      
       Interlude (2x)
      
      
      ----------------------------|-------------------------------------------------
      ----------------------------|-------------------------------------------------
      -4--4-4--4--4-4--4--4-4--4--|-4-4--5--5-5--5--5-5--5--5-5--5--5-5-------------
      -4--4-4--4--4-4--4--4-4--4--|-4-4--5--5-5--5--5-5--5--5-5--5--5-5-------------
      -2--2-2--2--2-2--2--2-2--2--|-2-2--3--3-3--3--3-3--3--3-3--3--3-3-------------
      ----x-x-----x-x-----x-x-----|-x-x-----x-x-----x-x-----x-x-----x-x-------------
      
      
       Rythm for Solo (4x)
      
      
      -----------------|-----------------|-----------------|-----------------|------
      -----------------|-----------------|-----------------|-----------------|------
      -4---4---2---2---|-7---7-----------|-4---4---2---2---|-4---4-----------|------
      -4---4---2---2---|-7---7---5---5---|-4---4---2---2---|-4---4----7-6-7--|------
      ---2---2---0---0-|---5---5-5---5---|---2---2---0---0-|---2---2--7-6-7--|------
      -----------------|-----------3---3-|-----------------|----------5-4-5--|------
      
      
       Slow Part after Solo (clean with phaser) [2x]
      
      
      -----------------|-----------------|-----------------|-----------------|------
      -----------------|-----------------|-----------------|-----------------|------
      -----------------|-5---5-----------|-----------------|-----------------|-2----
      -7---7---5---5---|-5---5---3---3---|-7---7---5---5---|-7---7----5-4-5--|-2----
      -7---7---5---5---|---3---3-3---3---|-7---7---5---5---|-7---7----5-4-5--|-0----
      ---5---5---3---3-|-----------1---1-|---5---5---3---3-|---5---5--3-2-3--|------
      
      
       Outro (clean with phaser (2x) ["And so we lay..."]                     (end)
        Composição: Bruce Dickinson / Roy ZColaboração e revisão:
        • slipknot_fk

        Comentários 0

        140 .
        140 cancelar

        conseguiu tocar?

        covers

        Grave um vídeo tocando The Alchemist e mande pra gente!

        Ex.: http://www.youtube.com/watch?v=0IvSvIwGdwk
        ver covers de outras músicas »
        0:00 / 0:00

        Capítulos

          2 versões de violão dificuldade exibições contribuição e correção
          2 versões de guitarra dificuldade exibições contribuição e correção
          2 versões de cavaco dificuldade exibições contribuição e correção
          2 versões de teclado dificuldade exibições contribuição e correção
          play/pausefechar subir/descer velocidade
          6ª corda E5ª corda A4ª corda D3ª corda G2ª corda B1ª corda E
            acordes
            publicidade
            fechar
            ok