Cifra Club

Aprenda

Frente a Frente

Bruno e Marrone

Cifra: Principal (violão e guitarra)
tom: Gm (forma dos acordes no tom de F#m) Capotraste na 1ª casa
[Intro] Bm  E  A  F#m  Bm  C#7

                    Bm       E                  A
E|-6-5-3------------3------------------------------|
B|-------6-5-3------4--4-6-6/8-8-6-6/4-4--3-4/6-3--|
G|-------------5-3--5------------------------------|
D|------------------5--5-7-7/9-9-7-7/5-5--3-5/7-3--|
A|------------------3------------------------------|
E|-------------------------------------------------|

         F#m               Bm       C#7
E|-------------------------------------------------|
B|-3-4-4/6-6-4-4-3-3-0-3/4-0--0-3-4-3-3-3-3--------|
G|-------------------------------------------------|
D|-3-5-5/7-7-5-5-3-3-0-4/5-0--0-3-5-3-3-3-3--------|
A|-------------------------------------------------|
E|-------------------------------------------------|

A                             E
Nos precisamos conversar, decidir o que vai ser
           F#m                  C#m
Se é uma briga de momento ou separação
        Bm                  F#m
Você tem que me dizer, quero ouvir a sua voz
   B7                              E       E7
Me falando frente a frente o que vai ser de nos

                A                 E
O que eu não posso é ficar, esperando por você
      F#m                            C#m
Sem saber se vai voltar, ou vai me esquecer
     Bm                                   F#m
Você tem que resolver, se me quer ou vai abrir
     B7                   E              E7
A indecisão me mata, você tem que decidir

    A          C#m             F#m
Vai, se o seu amor acabou diz pra mim
             C#m
Mas não me deixe assim
D              E                       A
Sei que vou passar um mal pedaço vou sofrer
        F#m                        Bm
Mas com o tempo vou parar de enlouquecer
   C#7       F#m    F#7
É pior duvidar e perder
 Bm              E7                  A
Diz que esta na hora desse jogo se acabar
         F#m                    Bm
Se é pra ficar assim prefiro terminar
           C#7                 F#m  E
Mesmo te amando posso te dizer adeus

[Solo] A  E  F#m  C#m  Bm  
       F#m  B7  E  E7

                A                 E
O que eu não posso é ficar, esperando por você
Composição de Carlos Colla / Chico Roque
Colaboração e revisão:
79.679 exibições
    • ½ Tom
    • Am
    • Bbm
    • Bm
    • Cm
    • C#m
    • Dm
    • Ebm
    • Em
    • Fm
    • F#m
    • Gm
    • G#m
  • Adicionar à lista

    0 comentários

    Ver todos os comentários
    00:00 / 00:00
    Outros vídeos desta música
    Repetir Qualidade Automático
    Outros vídeos desta música
    00:00 / 00:00
    Automático

    Cifra Club Pro

    Aproveite o Cifra Club com benefícios exclusivos e sem anúncios
    Cifra Club Pro
    Aproveite o Cifra Club com benefícios exclusivos e sem anúncios
    OK