Cifra Club

Aprenda

Nem Na Bebedeira

Bruno e Marrone

Cifra: Principal (violão e guitarra)
tom: C
Tom: C
    C                G                Am               F
E|-3-----3-----3----3-----3-----3----5-----5-----5----5-----5-----5--------|
B|-----5-----5----------3-----3----------5-----5----------6-----6----------|
G|---5-----5-----5----4-----4-----4----5-----5-----5----5-----5-----5------|
D|-----------------------------------7-------------------------------------|
A|-3--------------------------------------------------8--------------------|
E|------------------3------------------------------------------------------|

   C                G                Am            F
E|-8-----8-----8----7-----7-----7----5-----5----------------|
B|-----8-----8----------8-----8----------5------------------|
G|---9-----9-----9----7-----7-----7----5--------------------|
D|10---------------------------------7--------0-2-3-2-0-----|
A|-----------------10------------------------------------3--|
E|----------------------------------------------------------|


C         G              Am
Por que que tem que ser assim?
      F                    Dm
Se eu olho pra você, sinto coisas que não quero
F                             G
Um sentimento que eu jamais senti
C        G              Am
Por que que eu fiquei assim?
      F
O coração acelerado
     Dm
O telefone do meu lado
F                       G
Esperando ela ligar pra mim

Passagem
E|---------------|
B|-1h0-----------|
G|-----0-2h0-----|
D|-----------2h3-|
A|---------------|
E|---------------|
F
O que que tá rolando?
                         Am                  Em
O que o destino está armando? Não é hora de amar
        F                  Dm                   G F G
Não há tempo pra sonhar, não quero uma nova paixão

C                   G                 Am
E assim eu vou vivendo essa coisa maluca
                     F                C
De querer estar sozinho com você na cuca
           G                 Am
É o dia todo, é a noite inteira
                     F        G          C
O seu rosto eu não esqueço nem na bebedeira (2x)

    C               G            Am            F
E|--8-------8--------7-----7------5------------------------|
B|-- -8-------8-------8-----8-------5----------------------|
G|------9-------9------7-----7--------5--------------------|
D|10------10--------------------7------- -0-2-3-2-0--------|
A|----------------10-----10---------------- ---------3-----|
E|---------------------------------------------------------|

Repete a música
Composição de Anne Abreu / Marcelo Melo
Colaboração e revisão:
  • Marcos Vasconcelos
  • Lincoln Rodrigues
  • wesley silva
7.722 exibições
    • ½ Tom
    • A
    • Bb
    • B
    • C
    • Db
    • D
    • Eb
    • E
    • F
    • F#
    • G
    • Ab
  • Adicionar à lista

    0 comentários

    Ver todos os comentários
    00:00 / 00:00
    outros vídeos desta música
    repetir qualidade Automático
    Outros vídeos desta música
    00:00 / 00:00
    Automático

    Cifra Club Pro

    Aproveite o Cifra Club com benefícios exclusivos e sem anúncios
    Cifra Club Pro
    Aproveite o Cifra Club com benefícios exclusivos e sem anúncios
    OK