Notificações Amigos pendentes

      Bruno e Marrone

      O Sonho Não Acabou

      77.510 exibições
      Tom: D
      Intro:
      
            D        A4     Bm7       G
      E|---------------------------------|
      B|-3/10~---5/7-5~--3/10~-5b7r5-3~--|
      G|-------2-------------------------|
      D|---------------------------------|
      A|---------------------------------|
      E|---------------------------------|
      
      
      Primeira Parte:
      D                 A4
        O sonho não acabou
      Bm7        G
        Vale a pena acreditar
      D                A
        Deus criou o amor
      Bm7         G                 D
        E fez um dia eu te encontrar
      
      
      Solo: D  A4  Bm7  G
      E|--------------------------------5-5-5-5-5-5-5-5--|
      B|-3/10~---5/7-5~--3/10~-5b7r5-3~-3-3-3-3-3-3-3-3--|
      G|-------2-----------------------------------------|
      D|-------------------------------------------------|
      A|-------------------------------------------------|
      E|-------------------------------------------------|
      
      
      
      Primeira Parte:
      D                 A4
        Queria tanto sentir
      Bm7       G          D
        o seu abraço e dormir
                          A
        mas o que eu vou fazer
      Bm7        G
        Se você não esta aqui
      
      Pré-Refrão:
      A4         G            Bm7
        A noite vem, saudade faz
                 A4
        meu coração perder a paz
      A           G           Bm7
        Quero te ver, te escutar
                   A4 A
        Te quero amar
      
      Refrão:
                 D       A4
        Mas não vê meu amor
              Bm7        G
        E nem sabe quem sou
                 D                 A4/C#
        Como a noite que esconde o dia
               Bm7
        Vou tentando te buscar
              G                      D
        Escondida atras de seu olhar
      
      
      Solo: D  A4  Bm7  G
      E|--------------------------------5-5-5-5-5--|
      B|-3/10~---5/7-5~--3/10~-5b7r5-3~-3-3-3-3-3--|
      G|-------2-----------------------------------|
      D|-------------------------------------------|
      A|-------------------------------------------|
      E|-------------------------------------------|
      
      
      
      Pré-Refrão:
      A4         G            Bm7
        A noite vem, saudade faz
                 A4
        meu coração perder a paz
      A           G           Bm7
        Quero te ver, te escutar
                   A4 A
        Te quero amar
      
      Refrão:
                 D       A4
        Mas não vê meu amor
              Bm7        G
        E nem sabe quem sou
                 D                 A4/C#
        Como a noite que esconde o dia
               Bm7             G
        Vou tentando te buscar
      
      Ponte:
      Bm7
        E quando amanhecer
      A4
        eu sei que vou estar
      G
        te procurando pelas ruas em qualquer lugar
      Bm7
        E quem olhar vai ver
      A
        que ainda vive em mim
      G                    A4                A
        essa vontade de você que não tem fim
      
      Refrão:
                 D       A4
        Mas não vê meu amor
              Bm7        G
        E nem sabe quem sou
                 D                 A4/C#
        Como a noite que esconde o dia
               Bm7
        Vou tentando te buscar
              G                      D
        Escondida atras de seu olhar
      
      E|-----------------------10-9------------------|
      B|-3/10~---5/7-5~--3/10~------10----10-10/12~--|
      G|-------2-----------------------11------------|
      D|---------------------------------------------|
      A|---------------------------------------------|
      E|---------------------------------------------|
      
      
        Composição: Giuliano / BrunoColaboração e revisão:
        • Rick
        • Lipe
        • luizdepieri
        • Wesley Contador
        • +2

        Comentários 0

        140 .
        140 cancelar

        conseguiu tocar?

        covers

        Grave um vídeo tocando O Sonho Não Acabou e mande pra gente!

        Ex.: http://www.youtube.com/watch?v=0IvSvIwGdwk
        ver covers de outras músicas »
        0:00 / 0:00

        Capítulos

          1 versão de violão dificuldade exibições contribuição e correção
          1 versão de guitarra dificuldade exibições contribuição e correção
          1 versão de cavaco dificuldade exibições contribuição e correção
          1 versão de teclado dificuldade exibições contribuição e correção
          play/pausefechar subir/descer velocidade
          6ª corda E5ª corda A4ª corda D3ª corda G2ª corda B1ª corda E
            acordes
            publicidade
            fechar
            ok