Cifra Club

Só Pro Meu Prazer

Bruno e Marrone

Cifra: Principal
exibições 518.254
Tom: C
Intro 2x: C9  C11  C9  C11
Riff:
E|------------------|
B|------------------|
G|---0-----0--------|
D|0h2---0h2---------|
A|------------------|
E|------------------|

  C9                 C11
Não fala nada, deixa tudo assim por mim
  C9                         C11
Eu não me importo se nós não somos bem assim

C9                         C11
É tudo real, as minhas mentiras
C9                     C11                     G Am
E assim não faz mal, e assim não me faz mal não
Am
Noite e dia se completam
         G
Nosso amor e ódio eterno
Am
Eu te imagino, eu te conserto
            G
Eu faço a cena que eu quiser
Dm                              C7+
Tiro a roupa pra você, minha maior ficção de amor
Dm            F/A      Dm      G
Eu te recriei só pro meu prazer
                C9
Só pro meu prazer

(Intro / Riff)

C9                      C11
Não vem agora com essas insinuações
C9                         C11
Os seus defeitos ou de algum medo normal
C9                                C11
Será que você não é nada que eu penso
C9                          C11
Também se não for, não me faz mal
                 G Am
Não me faz mal não.

Am
Noite e dia se completam
         G
Nosso amor e ódio eterno
Am
Eu te imagino, eu te conserto
            G
Eu faço a cena que eu quiser
Dm                              C7+
Tiro a roupa pra você, minha maior ficção de amor
Dm            F/A      Dm    G
Eu te recriei só pro meu prazer
                C9
Só pro meu prazer
Solo:capotraste 2 casa
E|--------------5-7/9---------------------------
B|------------7---------10-10-------10/12/7-----
G|--------6-7-----------------11-11-------------
D|----4-7---------------------------------------
A|--5-------------------------------------------
E|----------------------------------------------

E|-------------------------------------------------------------
B|-10-10--12-12-------10-10------------------------------------
G|--------------11-11--------9-9--11-11--7-7--9-9-----6-7/4----
D|-------------------------------------------------------------
A|-------------------------------------------------------------
E|-------------------------------------------------------------

E|-----9h12p9------------------------------------9h12p9------------14---
B|-----10-----10-----10/(12)-10------------------10-----10--------------
G|-----11-------11---------------11/(9)-9-11-----11--------11/(14)------
D|----------------------------------------------------------------------
A|----------------------------------------------------------------------
E|----------------------------------------------------------------------

E|--12-2-2-9-2-2-12-2-9-2-2-10-2-2-7-2-9-2-2-5-2-2-7-2------------
B|----------------------------------------------------------------
G|----------------------------------------------------------------
D|----------------------------------------------------------------
A|----------------------------------------------------------------
E|----------------------------------------------------------------

E|----------------------------------------------
B|-3-2-3-2--------------------------------------
G|-----------4-2-4-2----------------------------
D|-------------------4-2-4-2--------------------
A|-----------------------------5-4-2-------------
E|----------------------------------------------

0 comentários

    mostrar mais comentários

    Conseguiu tocar?

    12tocaram0ainda não

    Grave um vídeo tocando Só Pro Meu Prazer e mande pra gente!

    00:00 / 00:00
    outros vídeos desta música
    repetirqualidadeautomática
    Outro vídeos desta música
      00:00 / 00:00
      automática
      OK