Cifra Club

Surto de Amor (part. Jorge & Mateus)

Bruno e Marrone

Cifra: Principal (violão e guitarra)
Tom: F
[Intro] F  

[Primeira Parte]

              F
Ela tava tão linda
                Am7
Mesmo abraçando ele
                 Dm
O amor da minha vida
                     Bb
Sendo exibida de troféu por ele

[Pré-Refrão]

                   F
Vez ou outra me olhava
                Am7
Como quem diz: Vem cá
                Dm
E na frente do povo, num surto de amor
                 Bb
Peguei ela nos braços e a festa parou

[Refrão]

               F
A gente se beijando e o mundo caindo
            Am7
Um inconformado e dois doido varrido
           Dm
E os convidados de queixo caído
            Bb
Me vendo levar ela embora comigo

               F
A gente se beijando e o mundo caindo
            Am7
Um inconformado e dois doido varrido
           Dm
E os convidados de queixo caído
            Bb
Me vendo levar ela embora comigo

[Solo] F  Am7  Dm  Bb
       F  Am7  Dm  Bb

E|----------------------------------------------------|
B|----------------------------------------------------|
G|----------------------------------------------------|
D|-----3---3~-----3-5-5/7--7~~------------------------|
A|-3h5---5----3h5-------------------------------------|
E|----------------------------------------------------|

E|----------10----------------------------------------|
B|-------10----13p10-13-------------------------------|
G|-12h14-------------14b-10-12-9~---------------------|
D|----------------------------------10h12---10--------|
A|----------------------------------------------------|
E|----------------------------------------------------|

E|------------10--------------------------------------|
B|-10------10----13p10--------------------------------|
G|----12b14-------------12b14-12b14r12p10----10-------|
D|----------------------------------------12----12-10-|
A|----------------------------------------------------|
E|----------------------------------------------------|

E|----------------------------------------------------|
B|----------------------------------------------------|
G|----------------------------------------------------|
D|----10h12-------------------------------------------|
A|-12-------------------------------------------------|
E|----------------------------------------------------|

[Pré-Refrão]

                   F
Vez ou outra me olhava
                Am7
Como quem diz: Vem cá
                Dm
E na frente do povo, num surto de amor
                 Bb
Peguei ela nos braços e a festa parou

[Refrão]

               F
A gente se beijando e o mundo caindo
            Am7
Um inconformado e dois doido varrido
           Dm
E os convidados de queixo caído
            Bb
Me vendo levar ela embora comigo

               F
A gente se beijando e o mundo caindo
            Am7
Um inconformado e dois doido varrido
           Dm
E os convidados de queixo caído
            Bb
Me vendo levar ela embora comigo
exibições 49.612
Acordes para:

    0 comentários

    mostrar mais comentários

    Conseguiu tocar?

    12 tocaram 14 ainda não

    Grave um vídeo tocando Surto de Amor (part. Jorge & Mateus) e mande pra gente!

    00:00 / 00:00
    outros vídeos desta música
    repetir qualidade Automático
    Outros vídeos desta música
    00:00 / 00:00
    Automático
    OK