Cifra Club

Te Amar Foi Ilusão

Bruno e Marrone

Cifra: Principal
exibições 358.067
Tom: C
[Intro]  G  F  C  F  G7  F#7  F7  G

Piano
E|--------------------|
B|--5-6-8--8-10-6-----|
G|--------------------|
D|--------------------|
A|--------------------|
E|--------------------|

Guitarra
E|-----8-7-5-7--------|         
B|-------------8------|         
G|--5-----------------|         
D|--------------------|
A|--------------------|
E|--------------------|

Piano
E|----------------------------------------
B|-------8-8-10-6-------------------------
G|---7-9----------------------------------
D|----------------------------------------
A|----------------------------------------
E|----------------------------------------

Guitarra
E|---5----------8-10-12-12h13-12-10------15h17--15-13-12-15--13---10-8-7--------|
B|-----8-6-5-6-----------------------13------------------------------------10-8---|
G|-5------------------------------------------------------------------------------|
D|--------------------------------------------------------------------------------|
A|--------------------------------------------------------------------------------|
E|--------------------------------------------------------------------------------|

C
Eu sei
                                                        G
Talvez eu tenha sufocado o teu sentimento
                                                      F
Não consegui sintonizar teu pensamento
                                                           C
Sabendoo que você queria arrancar de mim
                   G
Me deixando assim

 F
Não sei
F                                                                                C
Será que eu me enganei o tempo todo com o seu olhar
                                                              G/B
E apesar de tudo o que vivi eu me deixei levar
 F         G7       C
Que ilusão foi te amar

G   Am  G/B  C
Vai en-con-trar
                                                                             G7
Alguém que você ame e que te faça o que fez comigo
             F
E vai chorar
                                            C/G  (Am)
Cada lágrima que um dia derramei por te querer
 (F)     G7
Por te amar
G  Am  G/B  C
E vai sen-tir
                                                                          G7
A dor da indiferença desse alguém que só te engana
          F                         G7
Vai aprender a viver e dar valor no amor
            C
De quem te ama
 C  G/B  Am  Am  Dm  F/A  G/B  C  C7

[Solo]
E|------------------------------------------------------------
B|---------6-5-5---5-------6-5--------------------------------
G|-----5-7-------7-------5-----7-7-5-7--\4-5-7-7-5-5-4-4h5----
D|--\5---------------5-7--------------------------------------
A|------------------------------------------------------------
E|------------------------------------------------------------

E|------------------------------------------------------------
B|------------------------------------6h8-6-6-5-6~-6p5--------
G|---5p4--------------------------5-7-------------------7-5-5-
D|-------7-5-7h9--7-7-5-7----5-7------------------------------
A|------------------------------------------------------------
E|------------------------------------------------------------

Parte dessa frase abaixo é executada com Palm Mute

E|------------------------------------------------------------
B|-------------------------------------------5-6-7-5/13-13------
G|---------5------5-4------4-5-7---4-5-7-5-7------------------
D|-----5-7------7--------5------------------------------------
A|---8--------8-----------------------------------------------
E|------------------------------------------------------------

F
Não sei
F                                                                                C
Será que eu me enganei o tempo todo com o seu olhar
                                                     G/B
E apesar de tudo o que vivi eu me deixei levar
 F       G7       C
Que ilusão foi te amar

(Refrão)

Solo final: F  G  G/B  C

0 comentários

    mostrar mais comentários

    Conseguiu tocar?

    16tocaram2ainda não

    Grave um vídeo tocando Te Amar Foi Ilusão e mande pra gente!

    00:00 / 00:00
    outros vídeos desta música
    repetirqualidadeAutomático
    Outro vídeos desta música
      00:00 / 00:00
      OK