Cifra Club

Grenade

Bruno Mars

Tab de baixo: Principal
exibições 3.672
Primeira Parte:

G|----------------------------------------------------|
D|----------------------------------------------------|
A|----------------------------------------------------|
E|-10-10-10-10-10-10-10-10—-10-10-10-10-10-10-10-10---|
G|----------------------------------------------------|
D|----------------------------------------------------|
A|----------------------------------------------------|
E|-5-5-5-5-5-5-5-5—5-5-5-5-5-5-5-5--10-10-10-10-10-10-|
G|----------------------------------------------------|
D|----------------------------------------------------|
A|----------------------------------------------------|
E|-10-10—10-10-10-10-10-10-10-10--6-6-6-6-6-6-6-6--5--|

Refrão:

G|--------------------------------------------------|
D|--------------------------------------------------|4x
A|----------------------8-8-8-----------------------|
E|-10-10-10-10--6-6-6-6-------8-8-8-8-8-------------|   

G|----------------------------------------------------|
D|----------------------------------------------------|
A|----------------------------------8-8-8-8-7-7-7-7---|
E|-6-6-6-6-6-6-6-6—8-8-8-8-8-8-8-8--------------------|

G|----------------------------------------------------|
D|----------------------------------------------------|
A|-------------8-8-8-8-6-6-6-6-6-6-6-6--5-------------|
E|-10-10-10-10----------------------------------------|

Verso 2:

G|----------------------------------------------------|
D|----------------------------------------------------|
A|----------------------------------------------------|
E|-10-10-10-10-10-10-10-10—10-10-10-10-10-10-10-10----|
G|----------------------------------------------------|
D|----------------------------------------------------|
A|----------------------------------------------------|
E|-5-5-5-5-5-5-5-5--5-5-5-5-5-5-5-5--10-10-10-10-10-10| 

G|----------------------------------------------------|
D|----------------------------------------------------|
A|----------------------------------------------------|
E|-10-10--10-10-10-10-10-10-10-10--5-5-5-5-5-5-5-5--5-|

Interlúdio:

G|----------------------------------------------------|
D|----------------------------------------------------|
A|-10-10-10-10-10-10-10-10--10-10-10-10-10-10-10-10---|
E|----------------------------------------------------|
G|----------------------------------------------------|
D|----------------------------------------------------|
A|----------------------------------------------------|
E|-10-10-10-10-10-10-10-10—-10-10-10-10-10-10-10-10---|
G|----------------------------------------------------|
D|----------------------------------------------------|
A|-10-10-10-10-10-10-10-10--10-10-10-10-10-10-10-10---|
E|----------------------------------------------------|
G|----------10-10-10-10-10-10-10-10--10-10-10-10-10-10|
D|-7--7--7--12-12-12-12-12-12-12-12--12-12-12-12-12-12|
A|----------------------------------------------------|
E|-5—5--5---------------------------------------------|
G|-10-10-7-7-7-7-7-7-7-7--6---------------------------|
D|-12-12-8-8-8-8-8-8-8-8--7---------------------------|
A|----------------------------------------------------|
E|----------------------------------------------------|

Refrão:

G|-10-10-10-10-10-10-10-10--9-9-9-9-9-9-9-9--9-9-9-9-9|
D|-12-12-12-12-12-12-12-12--7-7-7-7-7-7-7-7--7-7-7-7-7|
A|----------------------------------------------------|
E|----------------------------------------------------|
G|-9-9-9----------------------------------------------|
D|-7-7-7----------------------------------------------|
A|----------------------------------------------------|
E|----------------------------------------------------|                                                                                                                                                                        
Composição: Marcelo Henrique de AngeliColaboração e revisão:
  • Breno
  • Matheus Maus

0 comentários

    mostrar mais comentários

    Conseguiu tocar?

    0tocaram0ainda não

    Grave um vídeo tocando Grenade e mande pra gente!

    00:00 / 00:00
    outros vídeos desta música
    repetirqualidadeautomática
    Outro vídeos desta música
      00:00 / 00:00
      automática
      OK