Notificações Amigos pendentes

      Bruno Mars

      Grenade

      3.492 exibições
      Primeira Parte:
      
      
      G|----------------------------------------------------|
      D|----------------------------------------------------|
      A|----------------------------------------------------|
      E|-10-10-10-10-10-10-10-10—-10-10-10-10-10-10-10-10---|
      
      G|----------------------------------------------------|
      D|----------------------------------------------------|
      A|----------------------------------------------------|
      E|-5-5-5-5-5-5-5-5—5-5-5-5-5-5-5-5--10-10-10-10-10-10-|
      
      G|----------------------------------------------------|
      D|----------------------------------------------------|
      A|----------------------------------------------------|
      E|-10-10—10-10-10-10-10-10-10-10--6-6-6-6-6-6-6-6--5--|
      
      
      Refrão:
      
      
      G|--------------------------------------------------|
      D|--------------------------------------------------|4x
      A|----------------------8-8-8-----------------------|
      E|-10-10-10-10--6-6-6-6-------8-8-8-8-8-------------|
         
      
      
      G|----------------------------------------------------|
      D|----------------------------------------------------|
      A|----------------------------------8-8-8-8-7-7-7-7---|
      E|-6-6-6-6-6-6-6-6—8-8-8-8-8-8-8-8--------------------|
      
      G|----------------------------------------------------|
      D|----------------------------------------------------|
      A|-------------8-8-8-8-6-6-6-6-6-6-6-6--5-------------|
      E|-10-10-10-10----------------------------------------|
      
      
      Verso 2:
      
      
      G|----------------------------------------------------|
      D|----------------------------------------------------|
      A|----------------------------------------------------|
      E|-10-10-10-10-10-10-10-10—10-10-10-10-10-10-10-10----|
      
      G|----------------------------------------------------|
      D|----------------------------------------------------|
      A|----------------------------------------------------|
      E|-5-5-5-5-5-5-5-5--5-5-5-5-5-5-5-5--10-10-10-10-10-10|
       
      
      
      G|----------------------------------------------------|
      D|----------------------------------------------------|
      A|----------------------------------------------------|
      E|-10-10--10-10-10-10-10-10-10-10--5-5-5-5-5-5-5-5--5-|
      
      
      Interlúdio:
      
      
      G|----------------------------------------------------|
      D|----------------------------------------------------|
      A|-10-10-10-10-10-10-10-10--10-10-10-10-10-10-10-10---|
      E|----------------------------------------------------|
      
      G|----------------------------------------------------|
      D|----------------------------------------------------|
      A|----------------------------------------------------|
      E|-10-10-10-10-10-10-10-10—-10-10-10-10-10-10-10-10---|
      
      G|----------------------------------------------------|
      D|----------------------------------------------------|
      A|-10-10-10-10-10-10-10-10--10-10-10-10-10-10-10-10---|
      E|----------------------------------------------------|
      
      G|----------10-10-10-10-10-10-10-10--10-10-10-10-10-10|
      D|-7--7--7--12-12-12-12-12-12-12-12--12-12-12-12-12-12|
      A|----------------------------------------------------|
      E|-5—5--5---------------------------------------------|
      
      G|-10-10-7-7-7-7-7-7-7-7--6---------------------------|
      D|-12-12-8-8-8-8-8-8-8-8--7---------------------------|
      A|----------------------------------------------------|
      E|----------------------------------------------------|
      
      
      Refrão:
      
      
      G|-10-10-10-10-10-10-10-10--9-9-9-9-9-9-9-9--9-9-9-9-9|
      D|-12-12-12-12-12-12-12-12--7-7-7-7-7-7-7-7--7-7-7-7-7|
      A|----------------------------------------------------|
      E|----------------------------------------------------|
      
      G|-9-9-9----------------------------------------------|
      D|-7-7-7----------------------------------------------|
      A|----------------------------------------------------|
      E|----------------------------------------------------|
                                                                                                                                                                              
        Composição: Bruno MarsColaboração e revisão:
        • Breno Bernardes
        • matheusmaus

        Comentários 0

        140 .
        140 cancelar

        conseguiu tocar?

        Fabio Dias1.627 visualizações
          ver covers de outras músicas »
          0:00 / 0:00

          Capítulos

            1 versão de violão dificuldade exibições contribuição e correção
            1 versão de guitarra dificuldade exibições contribuição e correção
            1 versão de cavaco dificuldade exibições contribuição e correção
            1 versão de teclado dificuldade exibições contribuição e correção
            1 versão de baixo exibições contribuição e correção
            1 versão de Guitar Proformatodownloadscontribuição
            1 versão de partiturasformatodownloadscontribuição
            play/pausefechar subir/descer velocidade
            6ª corda E5ª corda A4ª corda D3ª corda G2ª corda B1ª corda E
              acordes
              publicidade
              fechar
              ok