Cifra Club

Disembodied Part 2

Buckethead

Tab de bateria: Principal
                             Disembodied - part 2                               


                                                                      Buckethead
Drums



      E   Q.     H            E   Q.     H         
C||--35--38---------------|--35--38---------------|
C||-----------------------|-----------------------|
C||-----------------------|-----------------------|
C||-----------------------|-----------------------|
C||-----------------------|-----------------------|
C||-----------------------|-----------------------|


   E   Q     S  S  S  S Q.         E   Q     S  S  S  S Q.      
--35--36----35-36-35-36--------|--35--36----35-36-35-36--------|
-------------------------------|-------------------------------|
-------------------------------|-------------------------------|
-------------------------------|-------------------------------|
-------------------------------|-------------------------------|
-------------------------------|-------------------------------|


   E   Q.     H            E   Q.     H            E   Q     S  S  S  S Q.      
--35--38---------------|--35--38---------------|--35--36----35-36-35-36--------|
-----------------------|-----------------------|-------------------------------|
-----------------------|-----------------------|-------------------------------|
-----------------------|-----------------------|-------------------------------|
-----------------------|-----------------------|-------------------------------|
-----------------------|-----------------------|-------------------------------|


   E   Q     S  S  S  S Q.         E   E   E   E   E   E   E   E   
--35--36----35-36-35-36--------|--42--42--42--42--42--42--42--42--|
-------------------------------|----------------------------------|
-------------------------------|------35------38------35------38--|
-------------------------------|----------------------------------|
-------------------------------|----------------------------------|
-------------------------------|----------------------------------|


   E   E   E   E   E   E   E   E      E   E   E   E   E   E   E   E   
--42--42--42--42--42--42--42--42--|--42--42--42--42--42--42--42--42--|
----------------------------------|----------------------------------|
------35------38------35------38--|------35------38------35------38--|
----------------------------------|----------------------------------|
----------------------------------|----------------------------------|
----------------------------------|----------------------------------|


   E   E   E   E   E   E   E   E      E   E   E   E   E   E   E   E   
--42--42--42--42--42--42--42--42--|--42--42--42--42--42--42--42--42--|
----------------------------------|----------------------------------|
------35------38------35------38--|------35------38------35------38--|
----------------------------------|----------------------------------|
----------------------------------|----------------------------------|
----------------------------------|----------------------------------|


   E   E   E   E   E   E   E   E      E   E   E   E   E   E   E   E   
--42--42--42--42--42--42--42--42--|--42--42--42--42--42--42--42--42--|
----------------------------------|----------------------------------|
------35------38------35------38--|------35------38------35------38--|
----------------------------------|----------------------------------|
----------------------------------|----------------------------------|
----------------------------------|----------------------------------|


   E   E   E   E   E   E   E   E      E   E   E   E   E   E   E   E   
--42--42--42--42--42--42--42--42--|--42--42--42--42--42--42--42--42--|
----------------------------------|----------------------------------|
------35------38------35------38--|------35------38------35------38--|
----------------------------------|----------------------------------|
----------------------------------|----------------------------------|
----------------------------------|----------------------------------|


   E   E   E   E   E   E   E   E      E   E   E   E   E   E   E   E   
--42--42--42--42--42--42--42--42--|--42--42--42--42--42--42--42--42--|
----------------------------------|----------------------------------|
------35------38------35------38--|------35------38------35------38--|
----------------------------------|----------------------------------|
----------------------------------|----------------------------------|
----------------------------------|----------------------------------|


   E   E   E   E   E   E   E   E      Q    Q     Q    Q     
--42--42--42--42--42--42--42--42--|------------------------|
----------------------------------|--38---------38---------|
------35------38------35------38--|--35---------35---------|
----------------------------------|------------------------|
----------------------------------|------------------------|
----------------------------------|------------------------|


   Q    Q     Q    Q        Q    Q     Q    Q        Q    Q     Q    Q     
------------------------|------------------------|------------------------|
--38---------38---------|--38---------38---------|--38---------38---------|
--35---------35---------|--35---------35---------|--35---------35---------|
------------------------|------------------------|------------------------|
------------------------|------------------------|------------------------|
------------------------|------------------------|------------------------|


   E   E   E   E   E   E   E   E      E   E   E   E   E   E   E   E   
--42--42--42--42--42--42--42--42--|--42--42--42--42--42--42--42--42--|
----------------------------------|----------------------------------|
--35------38------35------38------|--35------38------35------38------|
----------------------------------|----------------------------------|
----------------------------------|----------------------------------|
----------------------------------|----------------------------------|


   E   E   E   E   E   E   E   E      E   E   E   E   E   E   E   E   
--42--42--42--42--42--42--42--42--|--42--42--42--42--42--42--42--42--|
----------------------------------|----------------------------------|
--35------38------35------38------|--35------38------35------38------|
----------------------------------|----------------------------------|
----------------------------------|----------------------------------|
----------------------------------|----------------------------------|


   E   E   E   E   E   E   E   E      E   E   E   E   E   E   E   E   
--42--42--42--42--42--42--42--42--|--42--42--42--42--42--42--42--42--|
----------------------------------|----------------------------------|
--35------38------35------38------|--35------38------35------38------|
----------------------------------|----------------------------------|
----------------------------------|----------------------------------|
----------------------------------|----------------------------------|


   E   E   E   E   E   E   E   E      E   E   E   E   E   E   E   E   
--42--42--42--42--42--42--42--42--|--42--42--42--42--42--42--42--42--|
----------------------------------|----------------------------------|
--35------38------35------38------|--35------38------35------38------|
----------------------------------|----------------------------------|
----------------------------------|----------------------------------|
----------------------------------|----------------------------------|


   E   E   E   E   E   E   E   E      E   E   E   E   E   E   E   E   
--42--42--42--42--42--42--42--42--|--42--42--42--42--42--42--42--42--|
----------------------------------|----------------------------------|
--35------38------35------38------|--35------38------35------38------|
----------------------------------|----------------------------------|
----------------------------------|----------------------------------|
----------------------------------|----------------------------------|


   E   E   E   E   E   E   E   E      E   E   E   E   E   E   E   E   
--42--42--42--42--42--42--42--42--|--42--42--42--42--42--42--42--42--|
----------------------------------|----------------------------------|
--35------38------35------38------|--35------38------35------38------|
----------------------------------|----------------------------------|
----------------------------------|----------------------------------|
----------------------------------|----------------------------------|


   E   E   E   E   E   E   E   E      E   E   E   E   E   E   E   E   
--42--42--42--42--42--42--42--42--|--42--42--42--42--42--42--42--42--|
----------------------------------|----------------------------------|
--35------38------35------38------|------35------38------35------38--|
----------------------------------|----------------------------------|
----------------------------------|----------------------------------|
----------------------------------|----------------------------------|


   E   E   E   E   E   E   E   E      E   E   E   E   E   E   E   E   
--42--42--42--42--42--42--42--42--|--42--42--42--42--42--42--42--42--|
----------------------------------|----------------------------------|
------35------38------35------38--|------35------38------35------38--|
----------------------------------|----------------------------------|
----------------------------------|----------------------------------|
----------------------------------|----------------------------------|


   E   E   E   E   E   E   E   E      E   E   E   E   E   E   E   E   
--42--42--42--42--42--42--42--42--|--42--42--42--42--42--42--42--42--|
----------------------------------|----------------------------------|
------35------38------35------38--|------35------38------35------38--|
----------------------------------|----------------------------------|
----------------------------------|----------------------------------|
----------------------------------|----------------------------------|


   E   E   E   E   E   E   E   E   
--42--42--42--42--42--42--42--42--|
----------------------------------|
------35------38------35------38--|
----------------------------------|
----------------------------------|
----------------------------------|


   S  S  S  S  S  S  S  S  S  S  S  S  S  S  S  S  
--42-42-42-42-42-42-42-42-42-42-42-42-42-42-42-42-|
--------------38----------------------38----------|
--35----------------------35----------------------|
--------------------------------------------------|
--------------------------------------------------|
--------------------------------------------------|


   S  S  S  S  S  S  S  S  S  S  S  S  S  S  S  S  
--42-42-42-42-42-42-42-42-42-42-42-42-42-42-42-42-|
--------------38----------------------38----------|
--35----------------------35----------------------|
--------------------------------------------------|
--------------------------------------------------|
--------------------------------------------------|


   S  S  S  S  S  S  S  S  S  S  S  S  S  S  S  S  
--42-42-42-42-42-42-42-42-42-42-42-42-42-42-42-42-|
--------------38----------------------38----------|
--35----------------------35----------------------|
--------------------------------------------------|
--------------------------------------------------|
--------------------------------------------------|


   S  S  S  S  S  S  S  S  S  S  S  S  S  S  S  S  
--42-42-42-42-42-42-42-42-42-42-42-42-42-42-42-42-|
--------------38----------------------38----------|
--35----------------------35----------------------|
--------------------------------------------------|
--------------------------------------------------|
--------------------------------------------------|


   S  S  S  S  S  S  S  S  S  S  S  S  S  S  S  S  
--42-42-42-42-42-42-42-42-42-42-42-42-42-42-42-42-|
--------------38----------------------38----------|
--35----------------------35----------------------|
--------------------------------------------------|
--------------------------------------------------|
--------------------------------------------------|


   S  S  S  S  S  S  S  S  S  S  S  S  S  S  S  S  
--42-42-42-42-42-42-42-42-42-42-42-42-42-42-42-42-|
--------------38----------------------38----------|
--35----------------------35----------------------|
--------------------------------------------------|
--------------------------------------------------|
--------------------------------------------------|


   S  S  S  S  S  S  S  S  S  S  S  S  S  S  S  S  
--42-42-42-42-42-42-42-42-42-42-42-42-42-42-42-42-|
--------------38----------------------38----------|
--35----------------------35----------------------|
--------------------------------------------------|
--------------------------------------------------|
--------------------------------------------------|


   S  S  S  S  S  S  S  S  S  S  S  S  S  S  S  S  
--42-42-42-42-42-42-42-42-42-42-42-42-42-42-42-42-|
--------------38----------------------38----------|
--35----------------------35----------------------|
--------------------------------------------------|
--------------------------------------------------|
--------------------------------------------------|


   S  S  S  S  S  S  S  S  S  S  S  S  S  S  S  S  
--42-42-42-42-42-42-42-42-42-42-42-42-42-42-42-42-|
--------------38----------------------38----------|
--35----------------------35----------------------|
--------------------------------------------------|
--------------------------------------------------|
--------------------------------------------------|


   S  S  S  S  S  S  S  S  S  S  S  S  S  S  S  S  
--42-42-42-42-42-42-42-42-42-42-42-42-42-42-42-42-|
--------------38----------------------38----------|
--35----------------------35----------------------|
--------------------------------------------------|
--------------------------------------------------|
--------------------------------------------------|


   S  S  S  S  S  S  S  S  S  S  S  S  S  S  S  S  
--42-42-42-42-42-42-42-42-42-42-42-42-42-42-42-42-|
--------------38----------------------38----------|
--35----------------------35----------------------|
--------------------------------------------------|
--------------------------------------------------|
--------------------------------------------------|


   S  S  S  S  S  S  S  S  S  S  S  S  S  S  S  S  
--42-42-42-42-42-42-42-42-42-42-42-42-42-42-42-42-|
--------------38----------------------38----------|
--35----------------------35----------------------|
--------------------------------------------------|
--------------------------------------------------|
--------------------------------------------------|


   S  S  S  S  S  S  S  S  S  S  S  S  S  S  S  S  
--42-42-42-42-42-42-42-42-42-42-42-42-42-42-42-42-|
--------------38----------------------38----------|
--35----------------------35----------------------|
--------------------------------------------------|
--------------------------------------------------|
--------------------------------------------------|


   S  S  S  S  S  S  S  S  S  S  S  S  S  S  S  S  
--42-42-42-42-42-42-42-42-42-42-42-42-42-42-42-42-|
--------------38----------------------38----------|
--35----------------------35----------------------|
--------------------------------------------------|
--------------------------------------------------|
--------------------------------------------------|


   S  S  S  S  S  S  S  S  S  S  S  S  S  S  S  S  
--42-42-42-42-42-42-42-42-42-42-42-42-42-42-42-42-|
--------------38----------------------38----------|
--35----------------------35----------------------|
--------------------------------------------------|
--------------------------------------------------|
--------------------------------------------------|


   S  S  S  S  S  S  S  S  S  S  S  S  S  S  S  S  
--42-42-42-42-42-42-42-42-42-42-42-42-42-42-42-42-|
--------------38----------------------38----------|
--35----------------------35----------------------|
--------------------------------------------------|
--------------------------------------------------|
--------------------------------------------------|


   S  S  S  S  S  S  S  S  S  S  S  S  S  S  S  S  
--42-42-42-42-42-42-42-42-42-42-42-42-42-42-42-42-|
--------------38----------------------38----------|
--35----------------------35----------------------|
--------------------------------------------------|
--------------------------------------------------|
--------------------------------------------------|


   S  S  S  S  S  S  S  S  S  S  S  S  S  S  S  S  
--42-42-42-42-42-42-42-42-42-42-42-42-42-42-42-42-|
--------------38----------------------38----------|
--35----------------------35----------------------|
--------------------------------------------------|
--------------------------------------------------|
--------------------------------------------------|


   S  S  S  S  S  S  S  S  S  S  S  S  S  S  S  S  
--42-42-42-42-42-42-42-42-42-42-42-42-42-42-42-42-|
--------------38----------------------38----------|
--35----------------------35----------------------|
--------------------------------------------------|
--------------------------------------------------|
--------------------------------------------------|


   S  S  S  S  S  S  S  S  S  S  S  S  S  S  S  S     E  H.           E    
--42-42-42-42-42-42-42-42-42-42-42-42-42-42-42-42-|--42------------------||
--------------38----------------------38----------|--38------------------||
--35----35----35----35----35----35----35----35----|--35------------------||
--------------------------------------------------|----------------------||
--------------------------------------------------|----------------------||
--------------------------------------------------|----------------------||




Duration Legend
---------------
W - whole
H - half
Q - quarter
E - 8th
S - 16th
T - 32nd
X - 64th
. - note dotted
|-n-|  - n-tuplets


Tablature Legend
----------------
L - tied note
x - dead note
g - grace note
(n) - ghost note
> - accentuded note
NH - natural harmonic
AH - artificial harmonic
TH - tapped harmonic
SH - semi harmonic
PH - pitch harmonic
h - hammer on
p - pull off
b - bend
br - bendRelease
pb - preBend
pbr - preBendRelease
brb - bendReleaseBend
\n/ - tremolo bar dip
\n - tremolo bar dive
-/n - tremolo bar Release up
/n\ - tremolo bar inverted dip
/n - tremolo bar return
-\n - tremolo bar Release down
S - shift slide
s - legato slide
/ -  slide into from below or out of upwards
\ -  slide into from above or out of downwards
~ - vibrato
W - wide vibrato
tr - trill
TP - tremolo picking
T - tapping
S - slap
P - pop
< - fade in
^ - brush up
v - brush down
00:00 / 00:00
Outros vídeos desta música
Repetir
Outros vídeos desta música
Composição de Buckethead
Colaboração e revisão:
  • zero one
11.291 exibições

0 comentários

Ver todos os comentários

Conseguiu tocar?

0 Tocaram 0 Ainda não

Grave um vídeo tocando Disembodied Part 2 e nos envie!

00:00 / 00:00

Cifra Club Pro

Aproveite o Cifra Club com benefícios exclusivos e sem anúncios
Cifra Club Pro
Aproveite o Cifra Club com benefícios exclusivos e sem anúncios
OK