Cifra Club

Time Trap

Built To Spill

Cifra: Principal (violão e guitarra)
Selo Cifra Club: esta cifra foi revisada para atender aos critérios oficiais da nossa Equipe de Qualidade.
tom: D
E|---------------------------------------------------------------------------|
B|---------------------------------------------------------------------------|
G|---------9----------------8----------------6---------5-----5---------------|
D|------6----6---6------6-----6---6------------7---7-----7-----7---7---------| x8
A|-7------7----7---7------7-----7--------7-------7---------7-----7-----------|
E|----------------------------------5------5---------5-----------------------|

E|---------------------------------------------------------------------------|
B|---------------------------------------------------------------------------|
G|---------------------------------------------------------------------------|
D|----6---6-7--7--55555555-----6---6-7--7--55555555--------------------------|
A|-7------------------------7------------------------------------------------|
E|---------------------------------------------------------------------------|

E|---------------------------------------------------------------------------|
B|---------------------------------------------------------------------------|
G|---------------6--6--6-55555555----------------6--6--6-55555555------------|
D|---------------------------------------------------------------------------|
A|-7--7--7-7-7-7-------------------7--7--7-7-7-7-----------------------------|
E|---------------------------------------------------------------------------|

E|---------------------------------------------------------------------------|
B|---------------------------------------------------------------------------|
G|-------1-1-------1-1-----------1-1-----------------------------------------|
D|-2p1h2-----2p1h2-----2p1h2p1h2---------------------------------------------|
A|---------------------------------------------------------------------------|
E|---------------------------------------------------------------------------|

E|---------------------------------------------------------------------------|
B|---------------------------------------------------------------------------|
G|-------1-1-----------1-1-b| end(on last one)---------------------------------|
D|-2p1h2-----2p1h2p1h2-------------------------------------------------------| x6
A|---------------------------------------------------------------------------|
E|---------------------------------------------------------------------------|

[Verse]

E|-xx---xx-xx---xx---xx-xx--xx--xx---xx-xx---xx---xx-xx--xx------------------|
B|-xx---xx-xx---xx---xx-xx--xx--xx---xx-xx---xx---xx-xx--xx------------------|
G|-13---13-13---13---13-13--13--13---13-13---13---13-13--13------------------|
D|-14---14-14---14---14-14--14--14---14-14---14---14-14--14------------------| x4
A|-14---14-14---14---14-14--14--14---14-14---14---14-14--14------------------|
E|-12---12-12---12---12-12--12--11---11-11---11---11-11--11------------------|
                     It‘s barely yours on loan
                     What you think you own
                     The place that you call home
                     The ideas in your bones                               
E|---------------------------------------------------------------------------|
B|---------------------------------------------------------------------------|
G|--9----9--9---9---8--------------------------------------------------------|
D|--11---11-11--11--9--------------------------------------------------------|
A|--11---11-11--11--9--------------------------------------------------------|
E|--9----9--9---9---7--------------------------------------------------------|
    In    your     bones

E|---------------------------------------------------------------------------|
B|---------------------------------------------------------------------------|
G|-------1-1-------1-1-----------1-1-------1-1-----------1-1-------1-1-------|
D|-2p1h2-----2p1h2-----2p1h2p1h2-----2p1h2-----2p1h2p1h2-----2p1h2-----------|
A|---------------------------------------------------------------------------|
E|---------------------------------------------------------------------------|

E|---------------------------------------------------------------------------|
B|---------------------------------------------------------------------------|
G|-----------1-1---------1h2h4-----------------------------------------------|
D|-2p1h2p1h2------4h6h7------------------------------------------------------|
A|---------------------------------------------------------------------------|
E|---------------------------------------------------------------------------|

[Verse]

E|-xx---xx-xx---xx---xx-xx--xx--xx---xx-xx---xx---xx-xx--xx------------------|
B|-xx---xx-xx---xx---xx-xx--xx--xx---xx-xx---xx---xx-xx--xx------------------|
G|-13---13-13---13---13-13--13--13---13-13---13---13-13--13------------------|
D|-14---14-14---14---14-14--14--14---14-14---14---14-14--14------------------| x4
A|-14---14-14---14---14-14--14--14---14-14---14---14-14--14------------------|
E|-12---12-12---12---12-12--12--11---11-11---11---11-11--11------------------|
                     This would still feel dumb
                     Back where you’re from               Do you
                     Do you want to change your mind
                     Do you want to change your mind
           
[Chorus]

E|-12-12-12-12-12-12-12-12-4-4-4-4-4-4-4-4-9--9--7-7-7-7-|
B|-12-12-12-12-12-12-12-12-5-5-5-5-5-5-5-5-9--9--7-7-7-7-|
G|-13-13-13-13-13-13-13-13-6-6-6-6-6-6-6-6-9--9--8-8-8-8-|
                    D|-14-14-14-14-14-14-14-14-6-6-6-6-6-6-6-6-11-11-9-9-9-9-|
                    A|-14-14-14-14-14-14-14-14-4-4-4-4-4-4-4-4-11-11-9-9-9-9-|
E|-12-12-12-12-12-12-12-12-4-4-4-4-4-4-4-4-9--9--7-7-7-7-|
’Cause you could never know that          in a time trap, in a time  trap

[Verse]

E|-xx---xx-xx---xx---xx-xx--xx--xx---xx-xx---xx---xx-xx----------------------|
B|-xx---xx-xx---xx---xx-xx--xx--xx---xx-xx---xx---xx-xx----------------------|
G|-13---13-13---13---13-13--13--13---13-13---13---13-13----------------------|
D|-14---14-14---14---14-14--14--14---14-14---14---14-14----------------------| x3
A|-14---14-14---14---14-14--14--14---14-14---14---14-14----------------------|
E|-12---12-12---12---12-12--12--11---11-11---11---12-12----------------------|
            Guess that’s        all fair         now because
            Guess that’s        all there        ever was
            Gray and            sprawling     
E|-xx---xx--------xx---xx---xx-----------------------------------------------|
B|-xx---xx--------xx---xx---xx-----------------------------------------------|
G|-13---13--------17---xx---xx-----------------------------------------------|
D|-14---14--------18---16---14-----------------------------------------------|
A|-14---14--------18---16---14-----------------------------------------------|
E|-12---12--------16---14---12-----------------------------------------------|
   Save your      crawling

[Chorus]

E|-12-12-12-12-12-12-12-12-4-4-4-4-4-4-4-4-9--9--7-7-7-7-|
B|-12-12-12-12-12-12-12-12-5-5-5-5-5-5-5-5-9--9--7-7-7-7-|
G|-13-13-13-13-13-13-13-13-6-6-6-6-6-6-6-6-9--9--8-8-8-8-|
                    D|-14-14-14-14-14-14-14-14-6-6-6-6-6-6-6-6-11-11-9-9-9-9-|
                    A|-14-14-14-14-14-14-14-14-4-4-4-4-4-4-4-4-11-11-9-9-9-9-|
E|-12-12-12-12-12-12-12-12-4-4-4-4-4-4-4-4-9--9--7-7-7-7-|
’Cause you could never know that          in a time trap, in a time  trap

[Verse]

E|-xx---xx-xx---xx---xx-xx--xx--xx---xx-xx---xx---xx-xx--xx------------------|
B|-xx---xx-xx---xx---xx-xx--xx--xx---xx-xx---xx---xx-xx--xx------------------|
G|-13---13-13---13---13-13--13--13---13-13---13---13-13--13------------------|
D|-14---14-14---14---14-14--14--14---14-14---14---14-14--14------------------| x2
A|-14---14-14---14---14-14--14--14---14-14---14---14-14--14------------------|
E|-12---12-12---12---12-12--12--11---11-11---11---11-11--11------------------|
                     Do you want to save your life
                     Do you want to save your life

[Chorus]

E|-12-12-12-12-12-12-12-12-4-4-4-4-4-4-4-4-9--9--7-7-7-7-|
B|-12-12-12-12-12-12-12-12-5-5-5-5-5-5-5-5-9--9--7-7-7-7-|
G|-13-13-13-13-13-13-13-13-6-6-6-6-6-6-6-6-9--9--8-8-8-8-|
                    D|-14-14-14-14-14-14-14-14-6-6-6-6-6-6-6-6-11-11-9-9-9-9-|
                    A|-14-14-14-14-14-14-14-14-4-4-4-4-4-4-4-4-11-11-9-9-9-9-|
E|-12-12-12-12-12-12-12-12-4-4-4-4-4-4-4-4-9--9--7-7-7-7-|
’Cause you could never know that          in a time trap, in a time  trap

[Outro]

E|---------------------------------------------------------------------------|
B|---------------------------------------------------------------------------|
G|---------------------------------------------------------------------------|
D|-5~-0-5h7-9-7-5-7p5h7~-4-7h9-10-9-7-9-5-0-5h7-9-7-5-7p5-7-4-7h9-10p9-7p5---|
A|---------------------------------------------------------------------------|
E|---------------------------------------------------------------------------|

E|---------------------------------------------------------------------------|
B|---------------------------------------------------------------------------|
G|---------------------------------------------------------------------------|
D|-5h7-9-7-5-0-5h7-9-7-5-7p5-7-4h5-2-4p2-0h2-4h5-9-5p4h5-0-5h7-9-7-5-7p5-9-10|
A|---------------------------------------------------------------------------|
E|---------------------------------------------------------------------------|

E|---------------------------------------------------------------------------|
B|---------------------------------------------------------------------------|
G|---------------------------------------------------------------------------|
D|-12-14------12-12------12-12------12---------12-12-12| ’’’-14-12------12-12--|
A|-------9h10-------9h10-------9h10-------9h10-------------------9h10--------|
E|---------------------------------------------------------------------------|

E|---------------------------------------------------------------------------|
B|---------------------------------------------------------------------------|
G|-----------------------12-12------12| ’’’-14-12------------------------------|
D|------12| ’’’-14-12-9h10-------9h10------------------12-12------12’’’-14-12--|
A|-9h10-----------------------------------------9h10-------9h10--------------|
E|---------------------------------------------------------------------------|

E|---------------------------------------------------------------------------|
B|---------------------------------------------------------------------------|
G|------12-12------12| ’’’-14\12/14\12/14\12-----------------12-12-------------|
D|-9h10-------9h10------------------------------12-12-9h10------------12-12--|
A|-----------------------------------------9h10------------------9h10--------|
E|---------------------------------------------------------------------------|

E|--------------------------------------------------12-----------------------|
B|--------------------------------------------------12-----------------------|
G|------12-12-12/14\12-12-12----12-12----12-12------12-----------------------|
D|-9h10----------------14-14----14-14----14-14------12-----------------------|
A|---------------------14-14----14-14----14-14-------------------------------|
E|---------------------12-12----12-12----12-12-------------------------------|
************************************

| h   Hammer-on
| p   Pull-off
| b   Bend
| /   Slide up
| \   Slide down
| ~   Vibrato
Outros vídeos desta música
    18 exibições
      • ½ Tom
      • A
      • Bb
      • B
      • C
      • Db
      • D
      • Eb
      • E
      • F
      • F#
      • G
      • Ab
    • Adicionar à lista

    Afinação da cifra

    Afinador online

      0 comentários

      Ver todos os comentários

      Conseguiu tocar?

      0Tocaram0Ainda não

      Grave um vídeo tocando Time Trap e nos envie!

      Toque também

      1. Imagem do artista PavementHarness Your Hopes Pavement
      2. Imagem do artista Modest MouseFloat On Modest Mouse
      3. Imagem do artista The Halo BendersSnowfall The Halo Benders
      4. Imagem do artista Ugly CasanovaParasites Ugly Casanova

      Entre para o Cifra Club PRO

      Tenha acesso a benefícios exclusivos no App e no Site

      • Chega de anúncios

      • Badges exclusivas

      • Mais recursos no app do Afinador

      • Atendimento Prioritário

      • Aumente seu limite de lista

      • Ajude a produzir mais conteúdo

      Cifra Club Pro

      Aproveite o Cifra Club com benefícios exclusivos e sem anúncios
      Cifra Club Pro
      Aproveite o Cifra Club com benefícios exclusivos e sem anúncios
      Ops (: Contenido disponible sólo en portugués.
      OK