Cifra Club

Letting the Cables Sleep

Bush

Cifra: Principal (violão e guitarra)
Tom: C#
Intro:
    F#        G#        A#
e|----------------------------------------------
B|------2---------4-----------------------------
G|--3-----3---5-----5---7------------------7----
D|--4---------6---------8---8-------------8-----
A|--4---------6---------8-------8---8-8-8-------
E|--2---------4---------6-----------------------


Verse:
             F#
You in the dark
             G#
You in the pain
         A#
You on the run
           F#
Living a hell
             G#
Living your ghost
          A#
Living your end
F#                           G#             A#
Never seem to get in the place that I belong
              F#
Don't wanna lose the time
   G#                 A#
Lose the time to come


Pre Chorus:
F#             G#
  Whatever you say it's alright
F#             G#
  Whatever you do it's all good
F#             G#          A#
  Whatever you say it's alright


Chorus:
C#5                 F
Silence is not the way
G#         A#
We need to talk about it
C#5                  F
If heaven is on the way
G#             A#
We'll wrap the world around it
C#5                  F
If heaven is on the way
C#5                  F
If heaven is on the way    


Intro


Verse 2:

(Only Drums)
You in the sea
On a decline
Breaking the waves
                  F#         G#
Watching the lights go down
            A#
Letting the cables sleep


Pre Chorus


Chorus


Bridge:
C#5                    A#    G#  F
I'm a stranger in this town.        (3x)
C#5                  F
If heaven is on the way             (2x)
C#5                    A#    G#  F
I'm a stranger in this town.        (2x)


Riff 2:
e|---------------------------------------------|
B|-6-------6-------------6-------6-------6-----|
G|---6-5-----6-5-6-8-5-----6-5-----6-5-----6-5-|
D|---------------------------------------------|
A|---------------------------------------------|
E|---------------------------------------------|


Chords:
F#  244322
G#  466544
A#  688766
C#5 x466xx
F   133211
exibições 32.117
Acordes para:
    Composição: Gavin Rossdale

    0 comentários

    mostrar mais comentários

    Conseguiu tocar?

    3 tocaram 0 ainda não

    Grave um vídeo tocando Letting the Cables Sleep e mande pra gente!

    00:00 / 00:00
    outros vídeos desta música
    repetir qualidade Automático
    Outros vídeos desta música
    00:00 / 00:00
    Automático
    OK