Cifra Club

Aprenda

De baixo do chapéu

Cachorro Grande

Cifra: Principal (violão e guitarra)
Já pensou em usar uma coleção de roupas do Cifra Club? Responda as perguntas abaixo e nos ajude nessa missão! →
tom: C
Intro:
e|--0--0--2---10b--8-10-8---------8-----0--0--2------------------|
B|--1--1--1---------------10-8-10---10--1--1--1------------------|
G|--2--0--2-----------------------------2--0--2--7b--5-7-5-------|
D|--2--2--0-----------------------------2--2--0------------7-5-7-|
A|--0--0--------------------------------0--0---------------------|
E|-----3-----------------------------------3---------------------|

Riff 1
e|---------0----------------2--------1-0-------3---0--|
B|-----------1----2-----1-----1---1--1---3-1---3---0--|
G|-----2-------2------2---2-----2----2---------4---1--|
D|---2---2----------0----------------3---------5---2--|
A|-0-----------------------------------------------2--|
E|-------------------------------------------------0--|

Riff 2
e|---------0-----------------2--------1-0--------0--|
B|-----------1----2------1-----1---1--1---3-1-0--0--|
G|-----2-------2-------2---2-----2----2----------1--|
D|---2---2-----------0----------------3----------2--|
A|-0---------------------------------------------2--|
E|-----------------------------------------------0--|

  Am          D7       F          G   E    (Riff 1 é tocado ao longo deste verso)       
Debaixo do meu chapéu com o nariz gelado
  Am          D7    F     E                (Riff 2 é tocado ao longo deste verso)
Max-gola quente, soando diferente
  Am          D7       F             G   E  (Riff 1 é tocado ao longo deste verso)        
Meu chapéu tipo Bob Dylan me ajuda a pensar        
  Am          D7        F       E          (Riff 2 é tocado ao longo deste verso)
Nos timbres e nas cores da minha música

Chorus 1:  
e|------------------------1-1--1-1-3-3-|
B|--1-1--------1-1---1----1-1--1-1-3-3-|
G|--0-0--------2-2---2----2-2--2-2-4-4-|
D|--2-2--------2-2---2----3-3--3-3-5-5-|
A|--3-3-2-3-2--0-0---0-----------------|
E|-----------------3---3---------------|
Senta e me aqueça com sua paciência

Chorus 2:
e|-----------------------1-1--|-1--3-4-|
B|-1-1--------1-1---1----1-1--|-1--3-4-|
G|-0-0--------2-2---2----2-2--|-2--4-5-|
D|-2-2--------2-2---2----3-3--|-3--5-6-|
A|-3-3-2-3-2--0-0---0---------|--------|
E|----------------3---3-------|--------|
Toda a circunferência da minha cabeça...

  Am          D7       F          G   E    (Riff 1 é tocado ao longo deste verso)       
Debaixo do meu chapéu com o nariz gelado
  Am          D7    F     E                (Riff 2 é tocado ao longo deste verso)
Max-gola quente, soando diferente
  Am          D7       F             G   E  (Riff 1 é tocado ao longo deste verso)        
Meu chapéu tipo Bob Dylan me ajuda a pensar        
  Am          D7        F       E          (Riff 2 é tocado ao longo deste verso)
Nos timbres e nas cores da minha música

(CHORUS 1)
Senta e me aqueça com sua paciência
(CHORUS 2)
Toda a circunferência da minha cabeça...

SOLO (a base são os riffs 1 e 2)
e|---------------------------------------------------------------------|
B|---------------------------------------------------------------------|
G|------5------7s9--7-5-------5-------------------5---5-7b--5-------5--|
D|-5s7~---7--------------7--7---7-5-7--5~-6~--5s7---7---------7-5-7----|
A|---------------------------------------------------------------------|
E|---------------------------------------------------------------------|

e|---------------------8----10b-10b-8---------8--------------------|
B|----------------8s10---10-----------10~--10----10-8-10--8~-9~-9--|
G|---------5-7s9---------------------------------------------------|
D|-----5-7---------------------------------------------------------|
A|-5-7-------------------------------------------------------------|
E|-----------------------------------------------------------------|

e|----8----8--10bb--8----8-----8--------------------------------8-------|
B|-10---10------------10---10----10-8-10------------------8s10----10~~--|
G|--------------------------------------------------5-7s9---------------|
D|----------------------------------------------5-7---------------------|
A|------------------------------------------5-7-------------------------|
E|----------------------------------------------------------------------|

(CHORUS 1)
Senta e me aqueça com sua paciência
(CHORUS 2)
Toda a circunferência da minha cabeça...

SOLO

Final:
e|--0--0--2---10b--8-10-8---------8-----0--0--2-----------------------|
B|--1--1--1---------------10-8-10---10--1--1--1-----------------------|
G|--2--0--2-----------------------------2--0--2--7b--5-7-5--------5---|
D|--2--2--0-----------------------------2--2--0------------7-5-7----7-|
A|--0--0--------------------------------0--0--------------------------|
E|-----3-----------------------------------3--------------------------|

e|--0--0--2---10b--8-10-8---------8-----0--0--2-|
B|--1--1--1---------------10-8-10---10--1--1--1-|
G|--2--0--2-----------------------------2--0--2-|
D|--2--2--0-----------------------------2--2--0-|
A|--0--0--------------------------------0--0----|
E|-----3-----------------------------------3----|
Compositor não encontrado.
48.593 exibições
    • ½ Tom
    • A
    • Bb
    • B
    • C
    • Db
    • D
    • Eb
    • E
    • F
    • F#
    • G
    • Ab
  • Adicionar à lista

    0 comentários

    Ver todos os comentários

    Conseguiu tocar?

    1 Tocaram 0 Ainda não

    Grave um vídeo tocando De baixo do chapéu e nos envie!

    00:00 / 00:00
    Outros vídeos desta música
    Repetir Qualidade Automático
    Outros vídeos desta música
    00:00 / 00:00
    Automático

    Cifra Club Pro

    Aproveite o Cifra Club com benefícios exclusivos e sem anúncios
    Cifra Club Pro
    Aproveite o Cifra Club com benefícios exclusivos e sem anúncios
    OK